ISO-10303-21;
HEADER;
FILE_DESCRIPTION (( 'STEP AP203' ),
    '1' );
FILE_NAME ('Web Model 15424_15428.step',
    '2020-07-31T18:43:43',
    ( '' ),
    ( '' ),
    'SwSTEP 2.0',
    'SolidWorks 2018',
    '' );
FILE_SCHEMA (( 'CONFIG_CONTROL_DESIGN' ));
ENDSEC;

DATA;
#1 = AXIS2_PLACEMENT_3D ( 'NONE', #97, #123, #166 ) ;
#2 = ORIENTED_EDGE ( 'NONE', *, *, #172, .F. ) ;
#3 = CARTESIAN_POINT ( 'NONE',  ( 0.0000000000000000000, 0.0000000000000000000, 1.000000000000000000 ) ) ;
#4 = CARTESIAN_POINT ( 'NONE',  ( 0.0000000000000000000, 0.0000000000000000000, 1.000000000000000000 ) ) ;
#5 = DIRECTION ( 'NONE',  ( 0.0000000000000000000, 0.0000000000000000000, 1.000000000000000000 ) ) ;
#6 = EDGE_LOOP ( 'NONE', ( #2, #62, #147, #69 ) ) ;
#7 = CARTESIAN_POINT ( 'NONE',  ( 0.0000000000000000000, 0.0000000000000000000, -1.000000000000000000 ) ) ;
#8 = AXIS2_PLACEMENT_3D ( 'NONE', #4, #137, #13 ) ;
#9 = AXIS2_PLACEMENT_3D ( 'NONE', #43, #82, #65 ) ;
#10 = CIRCLE ( 'NONE', #107, 12.69999999999999929 ) ;
#11 = VERTEX_POINT ( 'NONE', #133 ) ;
#12 = CC_DESIGN_APPROVAL ( #122, ( #17 ) ) ;
#13 = DIRECTION ( 'NONE',  ( 1.000000000000000000, 0.0000000000000000000, 0.0000000000000000000 ) ) ;
#14 = COORDINATED_UNIVERSAL_TIME_OFFSET ( 5, 0, .BEHIND. ) ;
#15 = DATE_AND_TIME ( #34, #127 ) ;
#16 = ORIENTED_EDGE ( 'NONE', *, *, #32, .T. ) ;
#17 = PRODUCT_DEFINITION ( 'UNKNOWN', '', #158, #89 ) ;
#18 = LOCAL_TIME ( 14, 43, 43.00000000000000000, #54 ) ;
#19 = PERSON_AND_ORGANIZATION_ROLE ( 'classification_officer' ) ;
#20 = DIRECTION ( 'NONE',  ( -0.0000000000000000000, -0.0000000000000000000, -1.000000000000000000 ) ) ;
#21 = DATE_TIME_ROLE ( 'classification_date' ) ;
#22 = PERSON_AND_ORGANIZATION_ROLE ( 'design_supplier' ) ;
#23 = PLANE ( 'NONE',  #1 ) ;
#24 = DATE_AND_TIME ( #63, #99 ) ;
#25 = SECURITY_CLASSIFICATION ( '', '', #92 ) ;
#26 = ORIENTED_EDGE ( 'NONE', *, *, #172, .T. ) ;
#27 = UNCERTAINTY_MEASURE_WITH_UNIT (LENGTH_MEASURE( 1.000000000000000082E-05 ), #125, 'distance_accuracy_value', 'NONE');
#28 = PERSON_AND_ORGANIZATION ( #145, #104 ) ;
#29 = APPROVAL ( #95, 'UNSPECIFIED' ) ;
#30 = PERSON_AND_ORGANIZATION ( #145, #104 ) ;
#31 = ORIENTED_EDGE ( 'NONE', *, *, #79, .T. ) ;
#32 = EDGE_CURVE ( 'NONE', #142, #112, #10, .T. ) ;
#33 = DIRECTION ( 'NONE',  ( 1.000000000000000000, 0.0000000000000000000, 0.0000000000000000000 ) ) ;
#34 = CALENDAR_DATE ( 2020, 31, 7 ) ;
#35 = APPLICATION_PROTOCOL_DEFINITION ( 'international standard', 'config_control_design', 1994, #93 ) ;
#36 = APPROVAL_ROLE ( '' ) ;
#37 = PERSON_AND_ORGANIZATION_ROLE ( 'creator' ) ;
#38 = CARTESIAN_POINT ( 'NONE',  ( 12.69999999999999929, 1.555301434917138433E-15, 1.000000000000000000 ) ) ;
#39 = AXIS2_PLACEMENT_3D ( 'NONE', #81, #48, #33 ) ;
#40 = SHAPE_DEFINITION_REPRESENTATION ( #114, #120 ) ;
#41 = EDGE_LOOP ( 'NONE', ( #103, #26, #16, #85 ) ) ;
#42 = AXIS2_PLACEMENT_3D ( 'NONE', #64, #5, #165 ) ;
#43 = CARTESIAN_POINT ( 'NONE',  ( 0.0000000000000000000, 0.0000000000000000000, -1.000000000000000000 ) ) ;
#44 = DIRECTION ( 'NONE',  ( 0.0000000000000000000, 0.0000000000000000000, 1.000000000000000000 ) ) ;
#45 = CIRCLE ( 'NONE', #162, 12.69999999999999929 ) ;
#46 = DIRECTION ( 'NONE',  ( 0.0000000000000000000, 0.0000000000000000000, 1.000000000000000000 ) ) ;
#47 = DATE_TIME_ROLE ( 'creation_date' ) ;
#48 = DIRECTION ( 'NONE',  ( 0.0000000000000000000, 0.0000000000000000000, 1.000000000000000000 ) ) ;
#49 = COORDINATED_UNIVERSAL_TIME_OFFSET ( 5, 0, .BEHIND. ) ;
#50 = APPLICATION_PROTOCOL_DEFINITION ( 'international standard', 'config_control_design', 1994, #157 ) ;
#51 = MANIFOLD_SOLID_BREP ( 'Boss-Extrude1', #175 ) ;
#52 = CALENDAR_DATE ( 2020, 31, 7 ) ;
#53 = ADVANCED_FACE ( 'NONE', ( #151 ), #94, .T. ) ;
#54 = COORDINATED_UNIVERSAL_TIME_OFFSET ( 5, 0, .BEHIND. ) ;
#55 = FACE_OUTER_BOUND ( 'NONE', #109, .T. ) ;
#56 = ORIENTED_EDGE ( 'NONE', *, *, #116, .F. ) ;
#57 =( NAMED_UNIT ( * ) SI_UNIT ( $, .STERADIAN. ) SOLID_ANGLE_UNIT ( ) );
#58 = APPROVAL_PERSON_ORGANIZATION ( #174, #122, #36 ) ;
#59 = CARTESIAN_POINT ( 'NONE',  ( 12.69999999999999929, 1.555301434917138433E-15, -1.000000000000000000 ) ) ;
#60 = DIRECTION ( 'NONE',  ( -1.000000000000000000, 0.0000000000000000000, 0.0000000000000000000 ) ) ;
#61 = DATE_AND_TIME ( #52, #121 ) ;
#62 = ORIENTED_EDGE ( 'NONE', *, *, #79, .F. ) ;
#63 = CALENDAR_DATE ( 2020, 31, 7 ) ;
#64 = CARTESIAN_POINT ( 'NONE',  ( 0.0000000000000000000, 0.0000000000000000000, 0.0000000000000000000 ) ) ;
#65 = DIRECTION ( 'NONE',  ( 1.000000000000000000, 0.0000000000000000000, -0.0000000000000000000 ) ) ;
#66 = APPROVAL_STATUS ( 'not_yet_approved' ) ;
#67 = PRODUCT_RELATED_PRODUCT_CATEGORY ( 'detail', '', ( #128 ) ) ;
#68 = EDGE_CURVE ( 'NONE', #72, #11, #130, .T. ) ;
#69 = ORIENTED_EDGE ( 'NONE', *, *, #116, .T. ) ;
#70 = CARTESIAN_POINT ( 'NONE',  ( 0.0000000000000000000, 0.0000000000000000000, -1.000000000000000000 ) ) ;
#71 = VECTOR ( 'NONE', #20, 1000.000000000000000 ) ;
#72 = VERTEX_POINT ( 'NONE', #117 ) ;
#73 = CYLINDRICAL_SURFACE ( 'NONE', #148, 12.69999999999999929 ) ;
#74 = PLANE ( 'NONE',  #9 ) ;
#75 = PERSON_AND_ORGANIZATION_ROLE ( 'creator' ) ;
#76 = CC_DESIGN_DATE_AND_TIME_ASSIGNMENT ( #15, #47, ( #17 ) ) ;
#77 = CARTESIAN_POINT ( 'NONE',  ( -12.69999999999999929, 0.0000000000000000000, -1.000000000000000000 ) ) ;
#78 = DIRECTION ( 'NONE',  ( 1.000000000000000000, 0.0000000000000000000, 0.0000000000000000000 ) ) ;
#79 = EDGE_CURVE ( 'NONE', #11, #72, #118, .T. ) ;
#80 = PERSON_AND_ORGANIZATION ( #145, #104 ) ;
#81 = CARTESIAN_POINT ( 'NONE',  ( 0.0000000000000000000, 0.0000000000000000000, 1.000000000000000000 ) ) ;
#82 = DIRECTION ( 'NONE',  ( 0.0000000000000000000, 0.0000000000000000000, 1.000000000000000000 ) ) ;
#83 = APPROVAL_PERSON_ORGANIZATION ( #160, #135, #108 ) ;
#84 = CC_DESIGN_DATE_AND_TIME_ASSIGNMENT ( #87, #21, ( #25 ) ) ;
#85 = ORIENTED_EDGE ( 'NONE', *, *, #102, .F. ) ;
#86 = APPROVAL_DATE_TIME ( #132, #135 ) ;
#87 = DATE_AND_TIME ( #161, #134 ) ;
#88 = CC_DESIGN_PERSON_AND_ORGANIZATION_ASSIGNMENT ( #90, #19, ( #25 ) ) ;
#89 = DESIGN_CONTEXT ( 'detailed design', #93, 'design' ) ;
#90 = PERSON_AND_ORGANIZATION ( #145, #104 ) ;
#91 = PERSON_AND_ORGANIZATION ( #145, #104 ) ;
#92 = SECURITY_CLASSIFICATION_LEVEL ( 'unclassified' ) ;
#93 = APPLICATION_CONTEXT ( 'configuration controlled 3d designs of mechanical parts and assemblies' ) ;
#94 = CYLINDRICAL_SURFACE ( 'NONE', #170, 12.69999999999999929 ) ;
#95 = APPROVAL_STATUS ( 'not_yet_approved' ) ;
#96 = PERSON_AND_ORGANIZATION_ROLE ( 'design_owner' ) ;
#97 = CARTESIAN_POINT ( 'NONE',  ( 0.0000000000000000000, 0.0000000000000000000, 1.000000000000000000 ) ) ;
#98 = ADVANCED_FACE ( 'NONE', ( #111 ), #74, .F. ) ;
#99 = LOCAL_TIME ( 14, 43, 43.00000000000000000, #139 ) ;
#100 = EDGE_LOOP ( 'NONE', ( #56, #140 ) ) ;
#101 = CC_DESIGN_APPROVAL ( #135, ( #25 ) ) ;
#102 = EDGE_CURVE ( 'NONE', #11, #112, #115, .T. ) ;
#103 = ORIENTED_EDGE ( 'NONE', *, *, #68, .F. ) ;
#104 = ORGANIZATION ( 'UNSPECIFIED', 'UNSPECIFIED', '' ) ;
#105 =( GEOMETRIC_REPRESENTATION_CONTEXT ( 3 ) GLOBAL_UNCERTAINTY_ASSIGNED_CONTEXT ( ( #27 ) ) GLOBAL_UNIT_ASSIGNED_CONTEXT ( ( #125, #138, #57 ) ) REPRESENTATION_CONTEXT ( 'NONE', 'WORKASPACE' ) );
#106 = DIRECTION ( 'NONE',  ( -0.0000000000000000000, -0.0000000000000000000, -1.000000000000000000 ) ) ;
#107 = AXIS2_PLACEMENT_3D ( 'NONE', #70, #44, #173 ) ;
#108 = APPROVAL_ROLE ( '' ) ;
#109 = EDGE_LOOP ( 'NONE', ( #31, #119 ) ) ;
#110 = CC_DESIGN_APPROVAL ( #29, ( #158 ) ) ;
#111 = FACE_OUTER_BOUND ( 'NONE', #100, .T. ) ;
#112 = VERTEX_POINT ( 'NONE', #77 ) ;
#113 = ADVANCED_FACE ( 'NONE', ( #55 ), #23, .T. ) ;
#114 = PRODUCT_DEFINITION_SHAPE ( 'NONE', 'NONE',  #17 ) ;
#115 = LINE ( 'NONE', #169, #71 ) ;
#116 = EDGE_CURVE ( 'NONE', #112, #142, #45, .T. ) ;
#117 = CARTESIAN_POINT ( 'NONE',  ( 12.69999999999999929, 1.555301434917138433E-15, 1.000000000000000000 ) ) ;
#118 = CIRCLE ( 'NONE', #39, 12.69999999999999929 ) ;
#119 = ORIENTED_EDGE ( 'NONE', *, *, #68, .T. ) ;
#120 = ADVANCED_BREP_SHAPE_REPRESENTATION ( 'Web Model 15424_15428', ( #51, #42 ), #105 ) ;
#121 = LOCAL_TIME ( 14, 43, 43.00000000000000000, #49 ) ;
#122 = APPROVAL ( #66, 'UNSPECIFIED' ) ;
#123 = DIRECTION ( 'NONE',  ( 0.0000000000000000000, 0.0000000000000000000, 1.000000000000000000 ) ) ;
#124 = DIRECTION ( 'NONE',  ( -0.0000000000000000000, -0.0000000000000000000, -1.000000000000000000 ) ) ;
#125 =( LENGTH_UNIT ( ) NAMED_UNIT ( * ) SI_UNIT ( .MILLI., .METRE. ) );
#126 = CC_DESIGN_PERSON_AND_ORGANIZATION_ASSIGNMENT ( #80, #96, ( #128 ) ) ;
#127 = LOCAL_TIME ( 14, 43, 43.00000000000000000, #159 ) ;
#128 = PRODUCT ( 'Web Model 15424_15428', 'Web Model 15424_15428', '', ( #154 ) ) ;
#129 = CC_DESIGN_PERSON_AND_ORGANIZATION_ASSIGNMENT ( #28, #37, ( #158 ) ) ;
#130 = CIRCLE ( 'NONE', #8, 12.69999999999999929 ) ;
#131 = CC_DESIGN_PERSON_AND_ORGANIZATION_ASSIGNMENT ( #163, #22, ( #158 ) ) ;
#132 = DATE_AND_TIME ( #152, #18 ) ;
#133 = CARTESIAN_POINT ( 'NONE',  ( -12.69999999999999929, 0.0000000000000000000, 1.000000000000000000 ) ) ;
#134 = LOCAL_TIME ( 14, 43, 43.00000000000000000, #14 ) ;
#135 = APPROVAL ( #168, 'UNSPECIFIED' ) ;
#136 = DIRECTION ( 'NONE',  ( -1.000000000000000000, 0.0000000000000000000, 0.0000000000000000000 ) ) ;
#137 = DIRECTION ( 'NONE',  ( 0.0000000000000000000, 0.0000000000000000000, 1.000000000000000000 ) ) ;
#138 =( NAMED_UNIT ( * ) PLANE_ANGLE_UNIT ( ) SI_UNIT ( $, .RADIAN. ) );
#139 = COORDINATED_UNIVERSAL_TIME_OFFSET ( 5, 0, .BEHIND. ) ;
#140 = ORIENTED_EDGE ( 'NONE', *, *, #32, .F. ) ;
#141 = APPROVAL_ROLE ( '' ) ;
#142 = VERTEX_POINT ( 'NONE', #59 ) ;
#143 = ADVANCED_FACE ( 'NONE', ( #146 ), #73, .T. ) ;
#144 = CC_DESIGN_SECURITY_CLASSIFICATION ( #25, ( #158 ) ) ;
#145 = PERSON ( 'UNSPECIFIED', 'UNSPECIFIED', 'UNSPECIFIED', ('UNSPECIFIED'), ('UNSPECIFIED'), ('UNSPECIFIED') ) ;
#146 = FACE_OUTER_BOUND ( 'NONE', #6, .T. ) ;
#147 = ORIENTED_EDGE ( 'NONE', *, *, #102, .T. ) ;
#148 = AXIS2_PLACEMENT_3D ( 'NONE', #155, #124, #60 ) ;
#149 = VECTOR ( 'NONE', #106, 1000.000000000000000 ) ;
#150 = LINE ( 'NONE', #38, #149 ) ;
#151 = FACE_OUTER_BOUND ( 'NONE', #41, .T. ) ;
#152 = CALENDAR_DATE ( 2020, 31, 7 ) ;
#153 = CC_DESIGN_PERSON_AND_ORGANIZATION_ASSIGNMENT ( #91, #75, ( #17 ) ) ;
#154 = MECHANICAL_CONTEXT ( 'NONE', #157, 'mechanical' ) ;
#155 = CARTESIAN_POINT ( 'NONE',  ( 0.0000000000000000000, 0.0000000000000000000, 1.000000000000000000 ) ) ;
#156 = APPROVAL_DATE_TIME ( #24, #122 ) ;
#157 = APPLICATION_CONTEXT ( 'configuration controlled 3d designs of mechanical parts and assemblies' ) ;
#158 = PRODUCT_DEFINITION_FORMATION_WITH_SPECIFIED_SOURCE ( 'ANY', '', #128, .NOT_KNOWN. ) ;
#159 = COORDINATED_UNIVERSAL_TIME_OFFSET ( 5, 0, .BEHIND. ) ;
#160 = PERSON_AND_ORGANIZATION ( #145, #104 ) ;
#161 = CALENDAR_DATE ( 2020, 31, 7 ) ;
#162 = AXIS2_PLACEMENT_3D ( 'NONE', #7, #46, #78 ) ;
#163 = PERSON_AND_ORGANIZATION ( #145, #104 ) ;
#164 = DIRECTION ( 'NONE',  ( -0.0000000000000000000, -0.0000000000000000000, -1.000000000000000000 ) ) ;
#165 = DIRECTION ( 'NONE',  ( 1.000000000000000000, 0.0000000000000000000, 0.0000000000000000000 ) ) ;
#166 = DIRECTION ( 'NONE',  ( 1.000000000000000000, 0.0000000000000000000, -0.0000000000000000000 ) ) ;
#167 = APPROVAL_DATE_TIME ( #61, #29 ) ;
#168 = APPROVAL_STATUS ( 'not_yet_approved' ) ;
#169 = CARTESIAN_POINT ( 'NONE',  ( -12.69999999999999929, 0.0000000000000000000, 1.000000000000000000 ) ) ;
#170 = AXIS2_PLACEMENT_3D ( 'NONE', #3, #164, #136 ) ;
#171 = APPROVAL_PERSON_ORGANIZATION ( #30, #29, #141 ) ;
#172 = EDGE_CURVE ( 'NONE', #72, #142, #150, .T. ) ;
#173 = DIRECTION ( 'NONE',  ( 1.000000000000000000, 0.0000000000000000000, 0.0000000000000000000 ) ) ;
#174 = PERSON_AND_ORGANIZATION ( #145, #104 ) ;
#175 = CLOSED_SHELL ( 'NONE', ( #53, #143, #113, #98 ) ) ;
ENDSEC;
END-ISO-10303-21;
