ISO-10303-21;
HEADER;
FILE_DESCRIPTION (( 'STEP AP203' ),
    '1' );
FILE_NAME ('Web Model 17212_17212.step',
    '2021-04-05T17:56:44',
    ( '' ),
    ( '' ),
    'SwSTEP 2.0',
    'SolidWorks 2018',
    '' );
FILE_SCHEMA (( 'CONFIG_CONTROL_DESIGN' ));
ENDSEC;

DATA;
#1 = EDGE_LOOP ( 'NONE', ( #60, #84 ) ) ;
#2 = PERSON_AND_ORGANIZATION ( #80, #24 ) ;
#3 = APPROVAL_ROLE ( '' ) ;
#4 = AXIS2_PLACEMENT_3D ( 'NONE', #165, #9, #221 ) ;
#5 = CARTESIAN_POINT ( 'NONE',  ( 0.000000000000000000, 0.000000000000000000, 1.000000000000000000 ) ) ;
#6 = ORIENTED_EDGE ( 'NONE', *, *, #100, .F. ) ;
#7 = VECTOR ( 'NONE', #12, 1000.000000000000000 ) ;
#8 = DIRECTION ( 'NONE',  ( -1.000000000000000000, 0.000000000000000000, 0.000000000000000000 ) ) ;
#9 = DIRECTION ( 'NONE',  ( -0.000000000000000000, -0.000000000000000000, -1.000000000000000000 ) ) ;
#10 = AXIS2_PLACEMENT_3D ( 'NONE', #36, #74, #89 ) ;
#11 = ORIENTED_EDGE ( 'NONE', *, *, #226, .F. ) ;
#12 = DIRECTION ( 'NONE',  ( -0.000000000000000000, -0.000000000000000000, -1.000000000000000000 ) ) ;
#13 = CYLINDRICAL_SURFACE ( 'NONE', #66, 9.550000000000000711 ) ;
#14 = ADVANCED_FACE ( 'NONE', ( #106, #145 ), #104, .T. ) ;
#15 = DIRECTION ( 'NONE',  ( 0.000000000000000000, 0.000000000000000000, 1.000000000000000000 ) ) ;
#16 = DIRECTION ( 'NONE',  ( -0.000000000000000000, -0.000000000000000000, -1.000000000000000000 ) ) ;
#17 = DIRECTION ( 'NONE',  ( -0.000000000000000000, -0.000000000000000000, -1.000000000000000000 ) ) ;
#18 = PRODUCT_DEFINITION_FORMATION_WITH_SPECIFIED_SOURCE ( 'ANY', '', #19, .NOT_KNOWN. ) ;
#19 = PRODUCT ( 'Web Model 17212_17212', 'Web Model 17212_17212', '', ( #114 ) ) ;
#20 = ORIENTED_EDGE ( 'NONE', *, *, #226, .T. ) ;
#21 = EDGE_CURVE ( 'NONE', #239, #22, #154, .T. ) ;
#22 = VERTEX_POINT ( 'NONE', #123 ) ;
#23 = AXIS2_PLACEMENT_3D ( 'NONE', #32, #17, #190 ) ;
#24 = ORGANIZATION ( 'UNSPECIFIED', 'UNSPECIFIED', '' ) ;
#25 = VERTEX_POINT ( 'NONE', #144 ) ;
#26 = AXIS2_PLACEMENT_3D ( 'NONE', #207, #15, #132 ) ;
#27 = DATE_TIME_ROLE ( 'classification_date' ) ;
#28 = PERSON_AND_ORGANIZATION_ROLE ( 'design_supplier' ) ;
#29 = DIRECTION ( 'NONE',  ( 1.000000000000000000, 0.000000000000000000, -0.000000000000000000 ) ) ;
#30 = ORIENTED_EDGE ( 'NONE', *, *, #21, .F. ) ;
#31 = ADVANCED_FACE ( 'NONE', ( #247 ), #98, .F. ) ;
#32 = CARTESIAN_POINT ( 'NONE',  ( 0.000000000000000000, 0.000000000000000000, 1.000000000000000000 ) ) ;
#33 = ADVANCED_FACE ( 'NONE', ( #168 ), #13, .F. ) ;
#34 = CARTESIAN_POINT ( 'NONE',  ( 9.550000000000000711, 1.169537693185722558E-15, 1.000000000000000000 ) ) ;
#35 = CC_DESIGN_DATE_AND_TIME_ASSIGNMENT ( #236, #65, ( #82 ) ) ;
#36 = CARTESIAN_POINT ( 'NONE',  ( 0.000000000000000000, 0.000000000000000000, 1.000000000000000000 ) ) ;
#37 = AXIS2_PLACEMENT_3D ( 'NONE', #5, #234, #29 ) ;
#38 = PERSON_AND_ORGANIZATION_ROLE ( 'design_owner' ) ;
#39 = VECTOR ( 'NONE', #142, 1000.000000000000000 ) ;
#40 = DATE_AND_TIME ( #92, #95 ) ;
#41 = EDGE_CURVE ( 'NONE', #25, #77, #47, .T. ) ;
#42 = CYLINDRICAL_SURFACE ( 'NONE', #4, 12.69999999999999929 ) ;
#43 = VERTEX_POINT ( 'NONE', #130 ) ;
#44 = CARTESIAN_POINT ( 'NONE',  ( 0.000000000000000000, 0.000000000000000000, 1.000000000000000000 ) ) ;
#45 = AXIS2_PLACEMENT_3D ( 'NONE', #223, #189, #220 ) ;
#46 = CARTESIAN_POINT ( 'NONE',  ( -9.550000000000000711, 0.000000000000000000, 1.000000000000000000 ) ) ;
#47 = CIRCLE ( 'NONE', #45, 12.69999999999999929 ) ;
#48 = UNCERTAINTY_MEASURE_WITH_UNIT (LENGTH_MEASURE( 1.000000000000000082E-05 ), #151, 'distance_accuracy_value', 'NONE');
#49 = DIRECTION ( 'NONE',  ( 1.000000000000000000, 0.000000000000000000, 0.000000000000000000 ) ) ;
#50 = DIRECTION ( 'NONE',  ( 0.000000000000000000, 0.000000000000000000, 1.000000000000000000 ) ) ;
#51 = CARTESIAN_POINT ( 'NONE',  ( 0.000000000000000000, 0.000000000000000000, 1.000000000000000000 ) ) ;
#52 = PERSON_AND_ORGANIZATION ( #80, #24 ) ;
#53 = PERSON_AND_ORGANIZATION ( #80, #24 ) ;
#54 = CARTESIAN_POINT ( 'NONE',  ( 0.000000000000000000, 0.000000000000000000, 0.000000000000000000 ) ) ;
#55 = CARTESIAN_POINT ( 'NONE',  ( -12.69999999999999929, 0.000000000000000000, 1.000000000000000000 ) ) ;
#56 = CARTESIAN_POINT ( 'NONE',  ( 0.000000000000000000, 0.000000000000000000, 0.000000000000000000 ) ) ;
#57 = PERSON_AND_ORGANIZATION ( #80, #24 ) ;
#58 = CC_DESIGN_PERSON_AND_ORGANIZATION_ASSIGNMENT ( #2, #38, ( #19 ) ) ;
#59 = DIRECTION ( 'NONE',  ( 0.000000000000000000, 0.000000000000000000, 1.000000000000000000 ) ) ;
#60 = ORIENTED_EDGE ( 'NONE', *, *, #140, .F. ) ;
#61 = CC_DESIGN_PERSON_AND_ORGANIZATION_ASSIGNMENT ( #86, #143, ( #18 ) ) ;
#62 = EDGE_LOOP ( 'NONE', ( #105, #115, #101, #122 ) ) ;
#63 = AXIS2_PLACEMENT_3D ( 'NONE', #175, #110, #134 ) ;
#64 = SECURITY_CLASSIFICATION_LEVEL ( 'unclassified' ) ;
#65 = DATE_TIME_ROLE ( 'creation_date' ) ;
#66 = AXIS2_PLACEMENT_3D ( 'NONE', #51, #150, #170 ) ;
#67 = EDGE_LOOP ( 'NONE', ( #121, #202 ) ) ;
#68 = LINE ( 'NONE', #34, #184 ) ;
#69 = CARTESIAN_POINT ( 'NONE',  ( 12.69999999999999929, 1.555301434917138433E-15, 1.000000000000000000 ) ) ;
#70 = ORIENTED_EDGE ( 'NONE', *, *, #182, .F. ) ;
#71 = DESIGN_CONTEXT ( 'detailed design', #181, 'design' ) ;
#72 = EDGE_LOOP ( 'NONE', ( #180, #232, #131, #107 ) ) ;
#73 = DIRECTION ( 'NONE',  ( 0.000000000000000000, 0.000000000000000000, 1.000000000000000000 ) ) ;
#74 = DIRECTION ( 'NONE',  ( 0.000000000000000000, 0.000000000000000000, 1.000000000000000000 ) ) ;
#75 = SECURITY_CLASSIFICATION ( '', '', #64 ) ;
#76 = CARTESIAN_POINT ( 'NONE',  ( 12.69999999999999929, 1.555301434917138433E-15, 0.000000000000000000 ) ) ;
#77 = VERTEX_POINT ( 'NONE', #240 ) ;
#78 = CIRCLE ( 'NONE', #174, 9.550000000000000711 ) ;
#79 =( GEOMETRIC_REPRESENTATION_CONTEXT ( 3 ) GLOBAL_UNCERTAINTY_ASSIGNED_CONTEXT ( ( #48 ) ) GLOBAL_UNIT_ASSIGNED_CONTEXT ( ( #151, #153, #192 ) ) REPRESENTATION_CONTEXT ( 'NONE', 'WORKASPACE' ) );
#80 = PERSON ( 'UNSPECIFIED', 'UNSPECIFIED', 'UNSPECIFIED', ('UNSPECIFIED'), ('UNSPECIFIED'), ('UNSPECIFIED') ) ;
#81 = ORIENTED_EDGE ( 'NONE', *, *, #246, .T. ) ;
#82 = PRODUCT_DEFINITION ( 'UNKNOWN', '', #18, #71 ) ;
#83 = PRODUCT_RELATED_PRODUCT_CATEGORY ( 'detail', '', ( #19 ) ) ;
#84 = ORIENTED_EDGE ( 'NONE', *, *, #85, .F. ) ;
#85 = EDGE_CURVE ( 'NONE', #43, #239, #78, .T. ) ;
#86 = PERSON_AND_ORGANIZATION ( #80, #24 ) ;
#87 = CC_DESIGN_PERSON_AND_ORGANIZATION_ASSIGNMENT ( #52, #160, ( #82 ) ) ;
#88 = APPROVAL_PERSON_ORGANIZATION ( #193, #169, #201 ) ;
#89 = DIRECTION ( 'NONE',  ( 1.000000000000000000, 0.000000000000000000, 0.000000000000000000 ) ) ;
#90 = ORIENTED_EDGE ( 'NONE', *, *, #140, .T. ) ;
#91 = DIRECTION ( 'NONE',  ( 0.000000000000000000, 0.000000000000000000, 1.000000000000000000 ) ) ;
#92 = CALENDAR_DATE ( 2021, 5, 4 ) ;
#93 = APPLICATION_PROTOCOL_DEFINITION ( 'international standard', 'config_control_design', 1994, #211 ) ;
#94 = FACE_OUTER_BOUND ( 'NONE', #62, .T. ) ;
#95 = LOCAL_TIME ( 13, 56, 44.00000000000000000, #113 ) ;
#96 = LINE ( 'NONE', #55, #7 ) ;
#97 = CC_DESIGN_PERSON_AND_ORGANIZATION_ASSIGNMENT ( #53, #216, ( #75 ) ) ;
#98 = CYLINDRICAL_SURFACE ( 'NONE', #111, 9.550000000000000711 ) ;
#99 = APPROVAL_STATUS ( 'not_yet_approved' ) ;
#100 = EDGE_CURVE ( 'NONE', #164, #116, #199, .T. ) ;
#101 = ORIENTED_EDGE ( 'NONE', *, *, #100, .T. ) ;
#102 = CALENDAR_DATE ( 2021, 5, 4 ) ;
#103 = PERSON_AND_ORGANIZATION ( #80, #24 ) ;
#104 = PLANE ( 'NONE',  #37 ) ;
#105 = ORIENTED_EDGE ( 'NONE', *, *, #41, .F. ) ;
#106 = FACE_OUTER_BOUND ( 'NONE', #67, .T. ) ;
#107 = ORIENTED_EDGE ( 'NONE', *, *, #248, .F. ) ;
#108 = DIRECTION ( 'NONE',  ( 1.000000000000000000, 0.000000000000000000, 0.000000000000000000 ) ) ;
#109 = ORIENTED_EDGE ( 'NONE', *, *, #248, .T. ) ;
#110 = DIRECTION ( 'NONE',  ( 0.000000000000000000, 0.000000000000000000, 1.000000000000000000 ) ) ;
#111 = AXIS2_PLACEMENT_3D ( 'NONE', #44, #126, #8 ) ;
#112 = CIRCLE ( 'NONE', #10, 9.550000000000000711 ) ;
#113 = COORDINATED_UNIVERSAL_TIME_OFFSET ( 5, 0, .BEHIND. ) ;
#114 = MECHANICAL_CONTEXT ( 'NONE', #211, 'mechanical' ) ;
#115 = ORIENTED_EDGE ( 'NONE', *, *, #231, .T. ) ;
#116 = VERTEX_POINT ( 'NONE', #187 ) ;
#117 = AXIS2_PLACEMENT_3D ( 'NONE', #172, #91, #238 ) ;
#118 = FACE_BOUND ( 'NONE', #155, .T. ) ;
#119 = CIRCLE ( 'NONE', #156, 12.69999999999999929 ) ;
#120 = SHAPE_DEFINITION_REPRESENTATION ( #229, #212 ) ;
#121 = ORIENTED_EDGE ( 'NONE', *, *, #182, .T. ) ;
#122 = ORIENTED_EDGE ( 'NONE', *, *, #217, .F. ) ;
#123 = CARTESIAN_POINT ( 'NONE',  ( -9.550000000000000711, 0.000000000000000000, 0.000000000000000000 ) ) ;
#124 = APPROVAL_DATE_TIME ( #133, #178 ) ;
#125 = AXIS2_PLACEMENT_3D ( 'NONE', #54, #237, #49 ) ;
#126 = DIRECTION ( 'NONE',  ( -0.000000000000000000, -0.000000000000000000, -1.000000000000000000 ) ) ;
#127 = ORIENTED_EDGE ( 'NONE', *, *, #217, .T. ) ;
#128 = DIRECTION ( 'NONE',  ( 1.000000000000000000, 0.000000000000000000, 0.000000000000000000 ) ) ;
#129 = CC_DESIGN_SECURITY_CLASSIFICATION ( #75, ( #18 ) ) ;
#130 = CARTESIAN_POINT ( 'NONE',  ( 9.550000000000000711, 1.169537693185722558E-15, 1.000000000000000000 ) ) ;
#131 = ORIENTED_EDGE ( 'NONE', *, *, #21, .T. ) ;
#132 = DIRECTION ( 'NONE',  ( 1.000000000000000000, 0.000000000000000000, 0.000000000000000000 ) ) ;
#133 = DATE_AND_TIME ( #194, #177 ) ;
#134 = DIRECTION ( 'NONE',  ( 1.000000000000000000, 0.000000000000000000, 0.000000000000000000 ) ) ;
#135 = DIRECTION ( 'NONE',  ( 1.000000000000000000, 0.000000000000000000, 0.000000000000000000 ) ) ;
#136 = APPROVAL ( #159, 'UNSPECIFIED' ) ;
#137 = LINE ( 'NONE', #69, #176 ) ;
#138 = CALENDAR_DATE ( 2021, 5, 4 ) ;
#139 = COORDINATED_UNIVERSAL_TIME_OFFSET ( 5, 0, .BEHIND. ) ;
#140 = EDGE_CURVE ( 'NONE', #239, #43, #112, .T. ) ;
#141 = ORIENTED_EDGE ( 'NONE', *, *, #205, .T. ) ;
#142 = DIRECTION ( 'NONE',  ( -0.000000000000000000, -0.000000000000000000, -1.000000000000000000 ) ) ;
#143 = PERSON_AND_ORGANIZATION_ROLE ( 'creator' ) ;
#144 = CARTESIAN_POINT ( 'NONE',  ( 12.69999999999999929, 1.555301434917138433E-15, 1.000000000000000000 ) ) ;
#145 = FACE_BOUND ( 'NONE', #1, .T. ) ;
#146 = CARTESIAN_POINT ( 'NONE',  ( 9.550000000000000711, 1.169537693185722558E-15, 0.000000000000000000 ) ) ;
#147 = EDGE_LOOP ( 'NONE', ( #90, #141, #11, #30 ) ) ;
#148 = PLANE ( 'NONE',  #117 ) ;
#149 = CIRCLE ( 'NONE', #63, 9.550000000000000711 ) ;
#150 = DIRECTION ( 'NONE',  ( -0.000000000000000000, -0.000000000000000000, -1.000000000000000000 ) ) ;
#151 =( LENGTH_UNIT ( ) NAMED_UNIT ( * ) SI_UNIT ( .MILLI., .METRE. ) );
#152 = CC_DESIGN_DATE_AND_TIME_ASSIGNMENT ( #40, #27, ( #75 ) ) ;
#153 =( NAMED_UNIT ( * ) PLANE_ANGLE_UNIT ( ) SI_UNIT ( $, .RADIAN. ) );
#154 = LINE ( 'NONE', #46, #39 ) ;
#155 = EDGE_LOOP ( 'NONE', ( #20, #109 ) ) ;
#156 = AXIS2_PLACEMENT_3D ( 'NONE', #56, #59, #195 ) ;
#157 = LOCAL_TIME ( 13, 56, 44.00000000000000000, #206 ) ;
#158 = LOCAL_TIME ( 13, 56, 44.00000000000000000, #200 ) ;
#159 = APPROVAL_STATUS ( 'not_yet_approved' ) ;
#160 = PERSON_AND_ORGANIZATION_ROLE ( 'creator' ) ;
#161 = VERTEX_POINT ( 'NONE', #146 ) ;
#162 = APPROVAL_DATE_TIME ( #214, #136 ) ;
#163 = AXIS2_PLACEMENT_3D ( 'NONE', #208, #73, #108 ) ;
#164 = VERTEX_POINT ( 'NONE', #76 ) ;
#165 = CARTESIAN_POINT ( 'NONE',  ( 0.000000000000000000, 0.000000000000000000, 1.000000000000000000 ) ) ;
#166 = ORIENTED_EDGE ( 'NONE', *, *, #231, .F. ) ;
#167 = CARTESIAN_POINT ( 'NONE',  ( 0.000000000000000000, 0.000000000000000000, 1.000000000000000000 ) ) ;
#168 = FACE_OUTER_BOUND ( 'NONE', #147, .T. ) ;
#169 = APPROVAL ( #233, 'UNSPECIFIED' ) ;
#170 = DIRECTION ( 'NONE',  ( -1.000000000000000000, 0.000000000000000000, 0.000000000000000000 ) ) ;
#171 = MANIFOLD_SOLID_BREP ( 'Boss-Extrude1', #209 ) ;
#172 = CARTESIAN_POINT ( 'NONE',  ( 0.000000000000000000, 0.000000000000000000, 0.000000000000000000 ) ) ;
#173 = APPROVAL_PERSON_ORGANIZATION ( #218, #136, #3 ) ;
#174 = AXIS2_PLACEMENT_3D ( 'NONE', #167, #50, #128 ) ;
#175 = CARTESIAN_POINT ( 'NONE',  ( 0.000000000000000000, 0.000000000000000000, 0.000000000000000000 ) ) ;
#176 = VECTOR ( 'NONE', #222, 1000.000000000000000 ) ;
#177 = LOCAL_TIME ( 13, 56, 44.00000000000000000, #249 ) ;
#178 = APPROVAL ( #99, 'UNSPECIFIED' ) ;
#179 = APPLICATION_PROTOCOL_DEFINITION ( 'international standard', 'config_control_design', 1994, #181 ) ;
#180 = ORIENTED_EDGE ( 'NONE', *, *, #205, .F. ) ;
#181 = APPLICATION_CONTEXT ( 'configuration controlled 3d designs of mechanical parts and assemblies' ) ;
#182 = EDGE_CURVE ( 'NONE', #77, #25, #242, .T. ) ;
#183 = ADVANCED_FACE ( 'NONE', ( #198 ), #42, .T. ) ;
#184 = VECTOR ( 'NONE', #16, 1000.000000000000000 ) ;
#185 = CALENDAR_DATE ( 2021, 5, 4 ) ;
#186 = CARTESIAN_POINT ( 'NONE',  ( -9.550000000000000711, 0.000000000000000000, 1.000000000000000000 ) ) ;
#187 = CARTESIAN_POINT ( 'NONE',  ( -12.69999999999999929, 0.000000000000000000, 0.000000000000000000 ) ) ;
#188 = ADVANCED_FACE ( 'NONE', ( #227, #118 ), #148, .F. ) ;
#189 = DIRECTION ( 'NONE',  ( 0.000000000000000000, 0.000000000000000000, 1.000000000000000000 ) ) ;
#190 = DIRECTION ( 'NONE',  ( -1.000000000000000000, 0.000000000000000000, 0.000000000000000000 ) ) ;
#191 = CC_DESIGN_APPROVAL ( #178, ( #75 ) ) ;
#192 =( NAMED_UNIT ( * ) SI_UNIT ( $, .STERADIAN. ) SOLID_ANGLE_UNIT ( ) );
#193 = PERSON_AND_ORGANIZATION ( #80, #24 ) ;
#194 = CALENDAR_DATE ( 2021, 5, 4 ) ;
#195 = DIRECTION ( 'NONE',  ( 1.000000000000000000, 0.000000000000000000, 0.000000000000000000 ) ) ;
#196 = CC_DESIGN_APPROVAL ( #169, ( #18 ) ) ;
#197 = EDGE_LOOP ( 'NONE', ( #166, #70, #127, #81 ) ) ;
#198 = FACE_OUTER_BOUND ( 'NONE', #197, .T. ) ;
#199 = CIRCLE ( 'NONE', #163, 12.69999999999999929 ) ;
#200 = COORDINATED_UNIVERSAL_TIME_OFFSET ( 5, 0, .BEHIND. ) ;
#201 = APPROVAL_ROLE ( '' ) ;
#202 = ORIENTED_EDGE ( 'NONE', *, *, #41, .T. ) ;
#203 = APPROVAL_ROLE ( '' ) ;
#204 = ORIENTED_EDGE ( 'NONE', *, *, #246, .F. ) ;
#205 = EDGE_CURVE ( 'NONE', #43, #161, #68, .T. ) ;
#206 = COORDINATED_UNIVERSAL_TIME_OFFSET ( 5, 0, .BEHIND. ) ;
#207 = CARTESIAN_POINT ( 'NONE',  ( 0.000000000000000000, 0.000000000000000000, 1.000000000000000000 ) ) ;
#208 = CARTESIAN_POINT ( 'NONE',  ( 0.000000000000000000, 0.000000000000000000, 0.000000000000000000 ) ) ;
#209 = CLOSED_SHELL ( 'NONE', ( #33, #219, #14, #188, #183, #31 ) ) ;
#210 = CARTESIAN_POINT ( 'NONE',  ( 0.000000000000000000, 0.000000000000000000, 0.000000000000000000 ) ) ;
#211 = APPLICATION_CONTEXT ( 'configuration controlled 3d designs of mechanical parts and assemblies' ) ;
#212 = ADVANCED_BREP_SHAPE_REPRESENTATION ( 'Web Model 17212_17212', ( #171, #241 ), #79 ) ;
#213 = EDGE_LOOP ( 'NONE', ( #204, #6 ) ) ;
#214 = DATE_AND_TIME ( #102, #157 ) ;
#215 = CC_DESIGN_APPROVAL ( #136, ( #82 ) ) ;
#216 = PERSON_AND_ORGANIZATION_ROLE ( 'classification_officer' ) ;
#217 = EDGE_CURVE ( 'NONE', #77, #116, #96, .T. ) ;
#218 = PERSON_AND_ORGANIZATION ( #80, #24 ) ;
#219 = ADVANCED_FACE ( 'NONE', ( #94 ), #244, .T. ) ;
#220 = DIRECTION ( 'NONE',  ( 1.000000000000000000, 0.000000000000000000, 0.000000000000000000 ) ) ;
#221 = DIRECTION ( 'NONE',  ( -1.000000000000000000, 0.000000000000000000, 0.000000000000000000 ) ) ;
#222 = DIRECTION ( 'NONE',  ( -0.000000000000000000, -0.000000000000000000, -1.000000000000000000 ) ) ;
#223 = CARTESIAN_POINT ( 'NONE',  ( 0.000000000000000000, 0.000000000000000000, 1.000000000000000000 ) ) ;
#224 = CIRCLE ( 'NONE', #125, 9.550000000000000711 ) ;
#225 = DATE_AND_TIME ( #138, #158 ) ;
#226 = EDGE_CURVE ( 'NONE', #22, #161, #224, .T. ) ;
#227 = FACE_OUTER_BOUND ( 'NONE', #213, .T. ) ;
#228 = APPROVAL_PERSON_ORGANIZATION ( #57, #178, #203 ) ;
#229 = PRODUCT_DEFINITION_SHAPE ( 'NONE', 'NONE',  #82 ) ;
#230 = LOCAL_TIME ( 13, 56, 44.00000000000000000, #139 ) ;
#231 = EDGE_CURVE ( 'NONE', #25, #164, #137, .T. ) ;
#232 = ORIENTED_EDGE ( 'NONE', *, *, #85, .T. ) ;
#233 = APPROVAL_STATUS ( 'not_yet_approved' ) ;
#234 = DIRECTION ( 'NONE',  ( 0.000000000000000000, 0.000000000000000000, 1.000000000000000000 ) ) ;
#235 = CC_DESIGN_PERSON_AND_ORGANIZATION_ASSIGNMENT ( #103, #28, ( #18 ) ) ;
#236 = DATE_AND_TIME ( #185, #230 ) ;
#237 = DIRECTION ( 'NONE',  ( 0.000000000000000000, 0.000000000000000000, 1.000000000000000000 ) ) ;
#238 = DIRECTION ( 'NONE',  ( 1.000000000000000000, 0.000000000000000000, -0.000000000000000000 ) ) ;
#239 = VERTEX_POINT ( 'NONE', #186 ) ;
#240 = CARTESIAN_POINT ( 'NONE',  ( -12.69999999999999929, 0.000000000000000000, 1.000000000000000000 ) ) ;
#241 = AXIS2_PLACEMENT_3D ( 'NONE', #210, #245, #135 ) ;
#242 = CIRCLE ( 'NONE', #26, 12.69999999999999929 ) ;
#243 = APPROVAL_DATE_TIME ( #225, #169 ) ;
#244 = CYLINDRICAL_SURFACE ( 'NONE', #23, 12.69999999999999929 ) ;
#245 = DIRECTION ( 'NONE',  ( 0.000000000000000000, 0.000000000000000000, 1.000000000000000000 ) ) ;
#246 = EDGE_CURVE ( 'NONE', #116, #164, #119, .T. ) ;
#247 = FACE_OUTER_BOUND ( 'NONE', #72, .T. ) ;
#248 = EDGE_CURVE ( 'NONE', #161, #22, #149, .T. ) ;
#249 = COORDINATED_UNIVERSAL_TIME_OFFSET ( 5, 0, .BEHIND. ) ;
ENDSEC;
END-ISO-10303-21;
