ISO-10303-21;
HEADER;
FILE_DESCRIPTION (( 'STEP AP203' ),
    '1' );
FILE_NAME ('43366C_36578.step',
    '2017-07-20T12:40:02',
    ( '' ),
    ( '' ),
    'SwSTEP 2.0',
    'SolidWorks 2016',
    '' );
FILE_SCHEMA (( 'CONFIG_CONTROL_DESIGN' ));
ENDSEC;

DATA;
#1 = CYLINDRICAL_SURFACE ( 'NONE', #120, 5.000000000000004400 ) ;
#2 = CC_DESIGN_PERSON_AND_ORGANIZATION_ASSIGNMENT ( #77, #62, ( #60 ) ) ;
#3 = PRODUCT_DEFINITION ( 'UNKNOWN', '', #60, #32 ) ;
#4 = DIRECTION ( 'NONE',  ( -0.0000000000000000000, -0.0000000000000000000, -1.000000000000000000 ) ) ;
#5 = CARTESIAN_POINT ( 'NONE',  ( 5.000000000000004400, 6.123233995736772200E-016, 0.5000000000000000000 ) ) ;
#6 = APPROVAL ( #55, 'UNSPECIFIED' ) ;
#7 = CC_DESIGN_PERSON_AND_ORGANIZATION_ASSIGNMENT ( #85, #106, ( #60 ) ) ;
#8 = COORDINATED_UNIVERSAL_TIME_OFFSET ( 5, 0, .BEHIND. ) ;
#9 = DIRECTION ( 'NONE',  ( 1.000000000000000000, 0.0000000000000000000, 0.0000000000000000000 ) ) ;
#10 = ADVANCED_FACE ( 'NONE', ( #135 ), #91, .T. ) ;
#11 = CALENDAR_DATE ( 2017, 20, 7 ) ;
#12 =( LENGTH_UNIT ( ) NAMED_UNIT ( * ) SI_UNIT ( .MILLI., .METRE. ) );
#13 = VERTEX_POINT ( 'NONE', #28 ) ;
#14 = CC_DESIGN_APPROVAL ( #59, ( #60 ) ) ;
#15 = DIRECTION ( 'NONE',  ( 1.000000000000000000, 0.0000000000000000000, 0.0000000000000000000 ) ) ;
#16 = DIRECTION ( 'NONE',  ( -0.0000000000000000000, -0.0000000000000000000, -1.000000000000000000 ) ) ;
#17 = DIRECTION ( 'NONE',  ( 0.0000000000000000000, 0.0000000000000000000, 1.000000000000000000 ) ) ;
#18 = CARTESIAN_POINT ( 'NONE',  ( 0.0000000000000000000, 0.0000000000000000000, 0.5000000000000000000 ) ) ;
#19 = SECURITY_CLASSIFICATION ( '', '', #66 ) ;
#20 =( NAMED_UNIT ( * ) SI_UNIT ( $, .STERADIAN. ) SOLID_ANGLE_UNIT ( ) );
#21 = LINE ( 'NONE', #57, #158 ) ;
#22 = CARTESIAN_POINT ( 'NONE',  ( 0.0000000000000000000, 0.0000000000000000000, 0.0000000000000000000 ) ) ;
#23 = AXIS2_PLACEMENT_3D ( 'NONE', #35, #31, #29 ) ;
#24 = CALENDAR_DATE ( 2017, 20, 7 ) ;
#25 = CC_DESIGN_PERSON_AND_ORGANIZATION_ASSIGNMENT ( #167, #94, ( #155 ) ) ;
#26 = DIRECTION ( 'NONE',  ( 0.0000000000000000000, 0.0000000000000000000, 1.000000000000000000 ) ) ;
#27 = LOCAL_TIME ( 8, 40, 2.000000000000000000, #93 ) ;
#28 = CARTESIAN_POINT ( 'NONE',  ( 5.000000000000004400, 6.123233995736772200E-016, -0.5000000000000000000 ) ) ;
#29 = DIRECTION ( 'NONE',  ( 1.000000000000000000, 0.0000000000000000000, 0.0000000000000000000 ) ) ;
#30 = ORIENTED_EDGE ( 'NONE', *, *, #149, .T. ) ;
#31 = DIRECTION ( 'NONE',  ( 0.0000000000000000000, 0.0000000000000000000, 1.000000000000000000 ) ) ;
#32 = DESIGN_CONTEXT ( 'detailed design', #96, 'design' ) ;
#33 = UNCERTAINTY_MEASURE_WITH_UNIT (LENGTH_MEASURE( 1.000000000000000100E-005 ), #12, 'distance_accuracy_value', 'NONE');
#34 = CIRCLE ( 'NONE', #128, 5.000000000000004400 ) ;
#35 = CARTESIAN_POINT ( 'NONE',  ( 0.0000000000000000000, 0.0000000000000000000, -0.5000000000000000000 ) ) ;
#36 = APPROVAL_ROLE ( '' ) ;
#37 = ORIENTED_EDGE ( 'NONE', *, *, #161, .F. ) ;
#38 = ORIENTED_EDGE ( 'NONE', *, *, #163, .F. ) ;
#39 = COORDINATED_UNIVERSAL_TIME_OFFSET ( 5, 0, .BEHIND. ) ;
#40 = APPROVAL_DATE_TIME ( #139, #59 ) ;
#41 = DIRECTION ( 'NONE',  ( 1.000000000000000000, 0.0000000000000000000, 0.0000000000000000000 ) ) ;
#42 = CC_DESIGN_DATE_AND_TIME_ASSIGNMENT ( #136, #49, ( #3 ) ) ;
#43 = VERTEX_POINT ( 'NONE', #172 ) ;
#44 = EDGE_LOOP ( 'NONE', ( #37, #52, #30, #38 ) ) ;
#45 = DIRECTION ( 'NONE',  ( 0.0000000000000000000, 0.0000000000000000000, 1.000000000000000000 ) ) ;
#46 = CARTESIAN_POINT ( 'NONE',  ( 0.0000000000000000000, 0.0000000000000000000, 0.5000000000000000000 ) ) ;
#47 = ORIENTED_EDGE ( 'NONE', *, *, #163, .T. ) ;
#48 = PERSON_AND_ORGANIZATION ( #138, #82 ) ;
#49 = DATE_TIME_ROLE ( 'creation_date' ) ;
#50 =( NAMED_UNIT ( * ) PLANE_ANGLE_UNIT ( ) SI_UNIT ( $, .RADIAN. ) );
#51 = PERSON_AND_ORGANIZATION ( #138, #82 ) ;
#52 = ORIENTED_EDGE ( 'NONE', *, *, #168, .T. ) ;
#53 = LOCAL_TIME ( 8, 40, 2.000000000000000000, #8 ) ;
#54 = CC_DESIGN_PERSON_AND_ORGANIZATION_ASSIGNMENT ( #175, #118, ( #3 ) ) ;
#55 = APPROVAL_STATUS ( 'not_yet_approved' ) ;
#56 = APPROVAL_DATE_TIME ( #95, #140 ) ;
#57 = CARTESIAN_POINT ( 'NONE',  ( -5.000000000000004400, 0.0000000000000000000, 0.5000000000000000000 ) ) ;
#58 = DIRECTION ( 'NONE',  ( 1.000000000000000000, 0.0000000000000000000, 0.0000000000000000000 ) ) ;
#59 = APPROVAL ( #147, 'UNSPECIFIED' ) ;
#60 = PRODUCT_DEFINITION_FORMATION_WITH_SPECIFIED_SOURCE ( 'ANY', '', #155, .NOT_KNOWN. ) ;
#61 = DIRECTION ( 'NONE',  ( 0.0000000000000000000, 0.0000000000000000000, 1.000000000000000000 ) ) ;
#62 = PERSON_AND_ORGANIZATION_ROLE ( 'design_supplier' ) ;
#63 = ADVANCED_BREP_SHAPE_REPRESENTATION ( '43366C_36578', ( #131, #64 ), #166 ) ;
#64 = AXIS2_PLACEMENT_3D ( 'NONE', #22, #26, #9 ) ;
#65 = APPROVAL_ROLE ( '' ) ;
#66 = SECURITY_CLASSIFICATION_LEVEL ( 'unclassified' ) ;
#67 = ADVANCED_FACE ( 'NONE', ( #148 ), #157, .F. ) ;
#68 = VERTEX_POINT ( 'NONE', #160 ) ;
#69 = CC_DESIGN_APPROVAL ( #6, ( #3 ) ) ;
#70 = COORDINATED_UNIVERSAL_TIME_OFFSET ( 5, 0, .BEHIND. ) ;
#71 = CARTESIAN_POINT ( 'NONE',  ( 0.0000000000000000000, 0.0000000000000000000, -0.5000000000000000000 ) ) ;
#72 = ORIENTED_EDGE ( 'NONE', *, *, #137, .F. ) ;
#73 = ORIENTED_EDGE ( 'NONE', *, *, #137, .T. ) ;
#74 = ORIENTED_EDGE ( 'NONE', *, *, #149, .F. ) ;
#75 = ORIENTED_EDGE ( 'NONE', *, *, #142, .F. ) ;
#76 = LOCAL_TIME ( 8, 40, 2.000000000000000000, #39 ) ;
#77 = PERSON_AND_ORGANIZATION ( #138, #82 ) ;
#78 = DATE_TIME_ROLE ( 'classification_date' ) ;
#79 = ORIENTED_EDGE ( 'NONE', *, *, #142, .T. ) ;
#80 = ADVANCED_FACE ( 'NONE', ( #84 ), #127, .T. ) ;
#81 = APPROVAL_PERSON_ORGANIZATION ( #107, #59, #102 ) ;
#82 = ORGANIZATION ( 'UNSPECIFIED', 'UNSPECIFIED', '' ) ;
#83 = CC_DESIGN_APPROVAL ( #140, ( #19 ) ) ;
#84 = FACE_OUTER_BOUND ( 'NONE', #170, .T. ) ;
#85 = PERSON_AND_ORGANIZATION ( #138, #82 ) ;
#86 = ORIENTED_EDGE ( 'NONE', *, *, #161, .T. ) ;
#87 = AXIS2_PLACEMENT_3D ( 'NONE', #71, #61, #58 ) ;
#88 = CC_DESIGN_SECURITY_CLASSIFICATION ( #19, ( #60 ) ) ;
#89 = DATE_AND_TIME ( #11, #53 ) ;
#90 = APPLICATION_CONTEXT ( 'configuration controlled 3d designs of mechanical parts and assemblies' ) ;
#91 = CYLINDRICAL_SURFACE ( 'NONE', #132, 5.000000000000004400 ) ;
#92 = PRODUCT_RELATED_PRODUCT_CATEGORY ( 'detail', '', ( #155 ) ) ;
#93 = COORDINATED_UNIVERSAL_TIME_OFFSET ( 5, 0, .BEHIND. ) ;
#94 = PERSON_AND_ORGANIZATION_ROLE ( 'design_owner' ) ;
#95 = DATE_AND_TIME ( #159, #27 ) ;
#96 = APPLICATION_CONTEXT ( 'configuration controlled 3d designs of mechanical parts and assemblies' ) ;
#97 = CLOSED_SHELL ( 'NONE', ( #10, #123, #80, #67 ) ) ;
#98 = DIRECTION ( 'NONE',  ( -0.0000000000000000000, -0.0000000000000000000, -1.000000000000000000 ) ) ;
#99 = CALENDAR_DATE ( 2017, 20, 7 ) ;
#100 = VERTEX_POINT ( 'NONE', #174 ) ;
#101 = APPROVAL_PERSON_ORGANIZATION ( #146, #140, #65 ) ;
#102 = APPROVAL_ROLE ( '' ) ;
#103 = DIRECTION ( 'NONE',  ( -0.0000000000000000000, -0.0000000000000000000, -1.000000000000000000 ) ) ;
#104 = AXIS2_PLACEMENT_3D ( 'NONE', #116, #115, #112 ) ;
#105 = MECHANICAL_CONTEXT ( 'NONE', #90, 'mechanical' ) ;
#106 = PERSON_AND_ORGANIZATION_ROLE ( 'creator' ) ;
#107 = PERSON_AND_ORGANIZATION ( #138, #82 ) ;
#108 = COORDINATED_UNIVERSAL_TIME_OFFSET ( 5, 0, .BEHIND. ) ;
#109 = CIRCLE ( 'NONE', #113, 5.000000000000004400 ) ;
#110 = CC_DESIGN_DATE_AND_TIME_ASSIGNMENT ( #89, #78, ( #19 ) ) ;
#111 = CARTESIAN_POINT ( 'NONE',  ( 0.0000000000000000000, 0.0000000000000000000, 0.5000000000000000000 ) ) ;
#112 = DIRECTION ( 'NONE',  ( 1.000000000000000000, 0.0000000000000000000, -0.0000000000000000000 ) ) ;
#113 = AXIS2_PLACEMENT_3D ( 'NONE', #46, #45, #41 ) ;
#114 = SHAPE_DEFINITION_REPRESENTATION ( #129, #63 ) ;
#115 = DIRECTION ( 'NONE',  ( 0.0000000000000000000, 0.0000000000000000000, 1.000000000000000000 ) ) ;
#116 = CARTESIAN_POINT ( 'NONE',  ( 0.0000000000000000000, 0.0000000000000000000, 0.5000000000000000000 ) ) ;
#117 = VECTOR ( 'NONE', #4, 1000.000000000000000 ) ;
#118 = PERSON_AND_ORGANIZATION_ROLE ( 'creator' ) ;
#119 = CALENDAR_DATE ( 2017, 20, 7 ) ;
#120 = AXIS2_PLACEMENT_3D ( 'NONE', #111, #103, #126 ) ;
#121 = APPLICATION_PROTOCOL_DEFINITION ( 'international standard', 'config_control_design', 1994, #96 ) ;
#123 = ADVANCED_FACE ( 'NONE', ( #151 ), #1, .T. ) ;
#122 = AXIS2_PLACEMENT_3D ( 'NONE', #154, #143, #141 ) ;
#124 = CIRCLE ( 'NONE', #23, 5.000000000000004400 ) ;
#125 = CC_DESIGN_PERSON_AND_ORGANIZATION_ASSIGNMENT ( #48, #165, ( #19 ) ) ;
#126 = DIRECTION ( 'NONE',  ( -1.000000000000000000, 0.0000000000000000000, 0.0000000000000000000 ) ) ;
#127 = PLANE ( 'NONE',  #104 ) ;
#128 = AXIS2_PLACEMENT_3D ( 'NONE', #18, #17, #15 ) ;
#129 = PRODUCT_DEFINITION_SHAPE ( 'NONE', 'NONE',  #3 ) ;
#130 = LOCAL_TIME ( 8, 40, 2.000000000000000000, #70 ) ;
#131 = MANIFOLD_SOLID_BREP ( 'Boss-Extrude1', #97 ) ;
#132 = AXIS2_PLACEMENT_3D ( 'NONE', #171, #16, #169 ) ;
#133 = APPLICATION_PROTOCOL_DEFINITION ( 'international standard', 'config_control_design', 1994, #90 ) ;
#134 = APPROVAL_DATE_TIME ( #153, #6 ) ;
#135 = FACE_OUTER_BOUND ( 'NONE', #44, .T. ) ;
#136 = DATE_AND_TIME ( #99, #76 ) ;
#137 = EDGE_CURVE ( 'NONE', #100, #13, #173, .T. ) ;
#138 = PERSON ( 'UNSPECIFIED', 'UNSPECIFIED', 'UNSPECIFIED', ('UNSPECIFIED'), ('UNSPECIFIED'), ('UNSPECIFIED') ) ;
#139 = DATE_AND_TIME ( #24, #150 ) ;
#140 = APPROVAL ( #152, 'UNSPECIFIED' ) ;
#141 = DIRECTION ( 'NONE',  ( 1.000000000000000000, 0.0000000000000000000, -0.0000000000000000000 ) ) ;
#142 = EDGE_CURVE ( 'NONE', #43, #68, #109, .T. ) ;
#143 = DIRECTION ( 'NONE',  ( 0.0000000000000000000, 0.0000000000000000000, 1.000000000000000000 ) ) ;
#144 = LINE ( 'NONE', #5, #117 ) ;
#145 = EDGE_LOOP ( 'NONE', ( #72, #74 ) ) ;
#146 = PERSON_AND_ORGANIZATION ( #138, #82 ) ;
#147 = APPROVAL_STATUS ( 'not_yet_approved' ) ;
#148 = FACE_OUTER_BOUND ( 'NONE', #145, .T. ) ;
#149 = EDGE_CURVE ( 'NONE', #13, #100, #124, .T. ) ;
#150 = LOCAL_TIME ( 8, 40, 2.000000000000000000, #108 ) ;
#151 = FACE_OUTER_BOUND ( 'NONE', #164, .T. ) ;
#152 = APPROVAL_STATUS ( 'not_yet_approved' ) ;
#153 = DATE_AND_TIME ( #119, #130 ) ;
#154 = CARTESIAN_POINT ( 'NONE',  ( 0.0000000000000000000, 0.0000000000000000000, -0.5000000000000000000 ) ) ;
#155 = PRODUCT ( '43366C_36578', '43366C_36578', '', ( #105 ) ) ;
#156 = ORIENTED_EDGE ( 'NONE', *, *, #168, .F. ) ;
#157 = PLANE ( 'NONE',  #122 ) ;
#158 = VECTOR ( 'NONE', #98, 1000.000000000000000 ) ;
#159 = CALENDAR_DATE ( 2017, 20, 7 ) ;
#160 = CARTESIAN_POINT ( 'NONE',  ( 5.000000000000004400, 6.123233995736772200E-016, 0.5000000000000000000 ) ) ;
#161 = EDGE_CURVE ( 'NONE', #68, #43, #34, .T. ) ;
#162 = APPROVAL_PERSON_ORGANIZATION ( #51, #6, #36 ) ;
#163 = EDGE_CURVE ( 'NONE', #43, #100, #21, .T. ) ;
#164 = EDGE_LOOP ( 'NONE', ( #156, #75, #47, #73 ) ) ;
#165 = PERSON_AND_ORGANIZATION_ROLE ( 'classification_officer' ) ;
#166 =( GEOMETRIC_REPRESENTATION_CONTEXT ( 3 ) GLOBAL_UNCERTAINTY_ASSIGNED_CONTEXT ( ( #33 ) ) GLOBAL_UNIT_ASSIGNED_CONTEXT ( ( #12, #50, #20 ) ) REPRESENTATION_CONTEXT ( 'NONE', 'WORKASPACE' ) );
#167 = PERSON_AND_ORGANIZATION ( #138, #82 ) ;
#168 = EDGE_CURVE ( 'NONE', #68, #13, #144, .T. ) ;
#169 = DIRECTION ( 'NONE',  ( -1.000000000000000000, 0.0000000000000000000, 0.0000000000000000000 ) ) ;
#170 = EDGE_LOOP ( 'NONE', ( #79, #86 ) ) ;
#171 = CARTESIAN_POINT ( 'NONE',  ( 0.0000000000000000000, 0.0000000000000000000, 0.5000000000000000000 ) ) ;
#172 = CARTESIAN_POINT ( 'NONE',  ( -5.000000000000004400, 0.0000000000000000000, 0.5000000000000000000 ) ) ;
#173 = CIRCLE ( 'NONE', #87, 5.000000000000004400 ) ;
#174 = CARTESIAN_POINT ( 'NONE',  ( -5.000000000000004400, 0.0000000000000000000, -0.5000000000000000000 ) ) ;
#175 = PERSON_AND_ORGANIZATION ( #138, #82 ) ;
ENDSEC;
END-ISO-10303-21;
