ISO-10303-21;
HEADER;
FILE_DESCRIPTION (( 'STEP AP203' ),
    '1' );
FILE_NAME ('Web Model 17219_17220.step',
    '2021-04-08T13:28:51',
    ( '' ),
    ( '' ),
    'SwSTEP 2.0',
    'SolidWorks 2018',
    '' );
FILE_SCHEMA (( 'CONFIG_CONTROL_DESIGN' ));
ENDSEC;

DATA;
#1 = EDGE_CURVE ( 'NONE', #68, #87, #49, .T. ) ;
#2 = DATE_AND_TIME ( #113, #70 ) ;
#3 = DIRECTION ( 'NONE',  ( 0.000000000000000000, 0.000000000000000000, 1.000000000000000000 ) ) ;
#4 = CC_DESIGN_SECURITY_CLASSIFICATION ( #123, ( #135 ) ) ;
#5 = VECTOR ( 'NONE', #168, 1000.000000000000000 ) ;
#6 = DIRECTION ( 'NONE',  ( -0.000000000000000000, -0.000000000000000000, -1.000000000000000000 ) ) ;
#7 = CARTESIAN_POINT ( 'NONE',  ( 0.000000000000000000, 0.000000000000000000, 0.000000000000000000 ) ) ;
#8 = CARTESIAN_POINT ( 'NONE',  ( -3.174999999999999822, 0.000000000000000000, 2.000000000000000000 ) ) ;
#9 = PERSON_AND_ORGANIZATION ( #167, #137 ) ;
#10 =( LENGTH_UNIT ( ) NAMED_UNIT ( * ) SI_UNIT ( .MILLI., .METRE. ) );
#11 = CARTESIAN_POINT ( 'NONE',  ( 3.174999999999999822, 3.888253587292846081E-16, 2.000000000000000000 ) ) ;
#12 =( NAMED_UNIT ( * ) PLANE_ANGLE_UNIT ( ) SI_UNIT ( $, .RADIAN. ) );
#13 = ORIENTED_EDGE ( 'NONE', *, *, #157, .F. ) ;
#14 = ADVANCED_FACE ( 'NONE', ( #60 ), #138, .T. ) ;
#15 = PRODUCT_RELATED_PRODUCT_CATEGORY ( 'detail', '', ( #172 ) ) ;
#16 = FACE_OUTER_BOUND ( 'NONE', #115, .T. ) ;
#17 = PLANE ( 'NONE',  #40 ) ;
#18 = ORIENTED_EDGE ( 'NONE', *, *, #47, .F. ) ;
#19 = EDGE_CURVE ( 'NONE', #87, #68, #170, .T. ) ;
#20 = ORIENTED_EDGE ( 'NONE', *, *, #47, .T. ) ;
#21 = APPLICATION_PROTOCOL_DEFINITION ( 'international standard', 'config_control_design', 1994, #38 ) ;
#22 = APPROVAL_ROLE ( '' ) ;
#23 = CIRCLE ( 'NONE', #153, 3.174999999999999822 ) ;
#24 = CC_DESIGN_APPROVAL ( #27, ( #123 ) ) ;
#25 = LOCAL_TIME ( 9, 28, 51.00000000000000000, #151 ) ;
#26 = ADVANCED_FACE ( 'NONE', ( #28 ), #158, .T. ) ;
#27 = APPROVAL ( #127, 'UNSPECIFIED' ) ;
#28 = FACE_OUTER_BOUND ( 'NONE', #46, .T. ) ;
#29 = UNCERTAINTY_MEASURE_WITH_UNIT (LENGTH_MEASURE( 1.000000000000000082E-05 ), #10, 'distance_accuracy_value', 'NONE');
#30 = CC_DESIGN_PERSON_AND_ORGANIZATION_ASSIGNMENT ( #107, #105, ( #172 ) ) ;
#31 = COORDINATED_UNIVERSAL_TIME_OFFSET ( 5, 0, .BEHIND. ) ;
#32 = EDGE_LOOP ( 'NONE', ( #83, #122 ) ) ;
#33 = CALENDAR_DATE ( 2021, 8, 4 ) ;
#34 = PERSON_AND_ORGANIZATION ( #167, #137 ) ;
#35 = CARTESIAN_POINT ( 'NONE',  ( 0.000000000000000000, 0.000000000000000000, 2.000000000000000000 ) ) ;
#36 = DIRECTION ( 'NONE',  ( 0.000000000000000000, 0.000000000000000000, 1.000000000000000000 ) ) ;
#37 = DATE_AND_TIME ( #72, #110 ) ;
#38 = APPLICATION_CONTEXT ( 'configuration controlled 3d designs of mechanical parts and assemblies' ) ;
#39 = DIRECTION ( 'NONE',  ( 1.000000000000000000, 0.000000000000000000, 0.000000000000000000 ) ) ;
#40 = AXIS2_PLACEMENT_3D ( 'NONE', #171, #150, #169 ) ;
#41 = MECHANICAL_CONTEXT ( 'NONE', #38, 'mechanical' ) ;
#42 = MANIFOLD_SOLID_BREP ( 'Boss-Extrude1', #152 ) ;
#43 =( GEOMETRIC_REPRESENTATION_CONTEXT ( 3 ) GLOBAL_UNCERTAINTY_ASSIGNED_CONTEXT ( ( #29 ) ) GLOBAL_UNIT_ASSIGNED_CONTEXT ( ( #10, #12, #142 ) ) REPRESENTATION_CONTEXT ( 'NONE', 'WORKASPACE' ) );
#44 = CARTESIAN_POINT ( 'NONE',  ( 0.000000000000000000, 0.000000000000000000, 0.000000000000000000 ) ) ;
#45 = PERSON_AND_ORGANIZATION ( #167, #137 ) ;
#46 = EDGE_LOOP ( 'NONE', ( #98, #18, #65, #159 ) ) ;
#47 = EDGE_CURVE ( 'NONE', #53, #141, #101, .T. ) ;
#48 = APPROVAL_DATE_TIME ( #2, #71 ) ;
#49 = CIRCLE ( 'NONE', #124, 3.174999999999999822 ) ;
#50 = AXIS2_PLACEMENT_3D ( 'NONE', #44, #130, #166 ) ;
#51 = CYLINDRICAL_SURFACE ( 'NONE', #59, 3.174999999999999822 ) ;
#52 = DIRECTION ( 'NONE',  ( 0.000000000000000000, 0.000000000000000000, 1.000000000000000000 ) ) ;
#53 = VERTEX_POINT ( 'NONE', #90 ) ;
#54 = EDGE_CURVE ( 'NONE', #141, #53, #23, .T. ) ;
#55 = PERSON_AND_ORGANIZATION_ROLE ( 'creator' ) ;
#56 = CARTESIAN_POINT ( 'NONE',  ( -3.174999999999999822, 0.000000000000000000, 0.000000000000000000 ) ) ;
#57 = CARTESIAN_POINT ( 'NONE',  ( 3.174999999999999822, 3.888253587292846081E-16, 2.000000000000000000 ) ) ;
#58 = COORDINATED_UNIVERSAL_TIME_OFFSET ( 5, 0, .BEHIND. ) ;
#59 = AXIS2_PLACEMENT_3D ( 'NONE', #106, #104, #80 ) ;
#60 = FACE_OUTER_BOUND ( 'NONE', #163, .T. ) ;
#61 = CC_DESIGN_APPROVAL ( #161, ( #112 ) ) ;
#62 = DESIGN_CONTEXT ( 'detailed design', #67, 'design' ) ;
#63 = APPROVAL_PERSON_ORGANIZATION ( #9, #71, #22 ) ;
#64 = DIRECTION ( 'NONE',  ( 0.000000000000000000, 0.000000000000000000, 1.000000000000000000 ) ) ;
#65 = ORIENTED_EDGE ( 'NONE', *, *, #157, .T. ) ;
#66 = SECURITY_CLASSIFICATION_LEVEL ( 'unclassified' ) ;
#67 = APPLICATION_CONTEXT ( 'configuration controlled 3d designs of mechanical parts and assemblies' ) ;
#68 = VERTEX_POINT ( 'NONE', #114 ) ;
#69 = PERSON_AND_ORGANIZATION ( #167, #137 ) ;
#70 = LOCAL_TIME ( 9, 28, 51.00000000000000000, #143 ) ;
#71 = APPROVAL ( #108, 'UNSPECIFIED' ) ;
#72 = CALENDAR_DATE ( 2021, 8, 4 ) ;
#73 = PERSON_AND_ORGANIZATION ( #167, #137 ) ;
#74 = ADVANCED_BREP_SHAPE_REPRESENTATION ( 'Web Model 17219_17220', ( #42, #50 ), #43 ) ;
#75 = DIRECTION ( 'NONE',  ( -1.000000000000000000, 0.000000000000000000, 0.000000000000000000 ) ) ;
#76 = CARTESIAN_POINT ( 'NONE',  ( 0.000000000000000000, 0.000000000000000000, 0.000000000000000000 ) ) ;
#77 = APPROVAL_PERSON_ORGANIZATION ( #69, #161, #93 ) ;
#78 = ORIENTED_EDGE ( 'NONE', *, *, #164, .T. ) ;
#79 = DIRECTION ( 'NONE',  ( 1.000000000000000000, 0.000000000000000000, 0.000000000000000000 ) ) ;
#80 = DIRECTION ( 'NONE',  ( -1.000000000000000000, 0.000000000000000000, 0.000000000000000000 ) ) ;
#81 = APPLICATION_PROTOCOL_DEFINITION ( 'international standard', 'config_control_design', 1994, #67 ) ;
#82 = CC_DESIGN_PERSON_AND_ORGANIZATION_ASSIGNMENT ( #45, #140, ( #135 ) ) ;
#83 = ORIENTED_EDGE ( 'NONE', *, *, #19, .F. ) ;
#84 = PRODUCT_DEFINITION_SHAPE ( 'NONE', 'NONE',  #112 ) ;
#85 = CC_DESIGN_PERSON_AND_ORGANIZATION_ASSIGNMENT ( #73, #120, ( #135 ) ) ;
#86 = DATE_AND_TIME ( #33, #89 ) ;
#87 = VERTEX_POINT ( 'NONE', #56 ) ;
#88 = AXIS2_PLACEMENT_3D ( 'NONE', #35, #6, #75 ) ;
#89 = LOCAL_TIME ( 9, 28, 51.00000000000000000, #91 ) ;
#90 = CARTESIAN_POINT ( 'NONE',  ( -3.174999999999999822, 0.000000000000000000, 2.000000000000000000 ) ) ;
#91 = COORDINATED_UNIVERSAL_TIME_OFFSET ( 5, 0, .BEHIND. ) ;
#92 = DIRECTION ( 'NONE',  ( -0.000000000000000000, -0.000000000000000000, -1.000000000000000000 ) ) ;
#93 = APPROVAL_ROLE ( '' ) ;
#94 = APPROVAL_PERSON_ORGANIZATION ( #144, #27, #165 ) ;
#95 = AXIS2_PLACEMENT_3D ( 'NONE', #102, #64, #100 ) ;
#96 = ADVANCED_FACE ( 'NONE', ( #154 ), #17, .F. ) ;
#97 = DATE_AND_TIME ( #131, #25 ) ;
#98 = ORIENTED_EDGE ( 'NONE', *, *, #164, .F. ) ;
#99 = DIRECTION ( 'NONE',  ( 1.000000000000000000, 0.000000000000000000, 0.000000000000000000 ) ) ;
#100 = DIRECTION ( 'NONE',  ( 1.000000000000000000, 0.000000000000000000, -0.000000000000000000 ) ) ;
#101 = CIRCLE ( 'NONE', #103, 3.174999999999999822 ) ;
#102 = CARTESIAN_POINT ( 'NONE',  ( 0.000000000000000000, 0.000000000000000000, 2.000000000000000000 ) ) ;
#103 = AXIS2_PLACEMENT_3D ( 'NONE', #147, #3, #79 ) ;
#104 = DIRECTION ( 'NONE',  ( -0.000000000000000000, -0.000000000000000000, -1.000000000000000000 ) ) ;
#105 = PERSON_AND_ORGANIZATION_ROLE ( 'design_owner' ) ;
#106 = CARTESIAN_POINT ( 'NONE',  ( 0.000000000000000000, 0.000000000000000000, 2.000000000000000000 ) ) ;
#107 = PERSON_AND_ORGANIZATION ( #167, #137 ) ;
#108 = APPROVAL_STATUS ( 'not_yet_approved' ) ;
#109 = CC_DESIGN_PERSON_AND_ORGANIZATION_ASSIGNMENT ( #34, #149, ( #123 ) ) ;
#110 = LOCAL_TIME ( 9, 28, 51.00000000000000000, #58 ) ;
#111 = VECTOR ( 'NONE', #92, 1000.000000000000000 ) ;
#112 = PRODUCT_DEFINITION ( 'UNKNOWN', '', #135, #62 ) ;
#113 = CALENDAR_DATE ( 2021, 8, 4 ) ;
#114 = CARTESIAN_POINT ( 'NONE',  ( 3.174999999999999822, 3.888253587292846081E-16, 0.000000000000000000 ) ) ;
#115 = EDGE_LOOP ( 'NONE', ( #133, #78, #134, #13 ) ) ;
#116 = DIRECTION ( 'NONE',  ( 0.000000000000000000, 0.000000000000000000, 1.000000000000000000 ) ) ;
#117 = DATE_TIME_ROLE ( 'classification_date' ) ;
#118 = DATE_AND_TIME ( #162, #132 ) ;
#119 = CARTESIAN_POINT ( 'NONE',  ( 0.000000000000000000, 0.000000000000000000, 2.000000000000000000 ) ) ;
#120 = PERSON_AND_ORGANIZATION_ROLE ( 'creator' ) ;
#121 = APPROVAL_DATE_TIME ( #86, #27 ) ;
#122 = ORIENTED_EDGE ( 'NONE', *, *, #1, .F. ) ;
#123 = SECURITY_CLASSIFICATION ( '', '', #66 ) ;
#124 = AXIS2_PLACEMENT_3D ( 'NONE', #76, #52, #160 ) ;
#125 = AXIS2_PLACEMENT_3D ( 'NONE', #7, #36, #99 ) ;
#126 = LINE ( 'NONE', #8, #111 ) ;
#127 = APPROVAL_STATUS ( 'not_yet_approved' ) ;
#128 = APPROVAL_STATUS ( 'not_yet_approved' ) ;
#129 = DATE_TIME_ROLE ( 'creation_date' ) ;
#130 = DIRECTION ( 'NONE',  ( 0.000000000000000000, 0.000000000000000000, 1.000000000000000000 ) ) ;
#131 = CALENDAR_DATE ( 2021, 8, 4 ) ;
#132 = LOCAL_TIME ( 9, 28, 51.00000000000000000, #31 ) ;
#133 = ORIENTED_EDGE ( 'NONE', *, *, #54, .F. ) ;
#134 = ORIENTED_EDGE ( 'NONE', *, *, #1, .T. ) ;
#135 = PRODUCT_DEFINITION_FORMATION_WITH_SPECIFIED_SOURCE ( 'ANY', '', #172, .NOT_KNOWN. ) ;
#136 = PERSON_AND_ORGANIZATION ( #167, #137 ) ;
#137 = ORGANIZATION ( 'UNSPECIFIED', 'UNSPECIFIED', '' ) ;
#138 = PLANE ( 'NONE',  #95 ) ;
#139 = CC_DESIGN_DATE_AND_TIME_ASSIGNMENT ( #97, #117, ( #123 ) ) ;
#140 = PERSON_AND_ORGANIZATION_ROLE ( 'design_supplier' ) ;
#141 = VERTEX_POINT ( 'NONE', #11 ) ;
#142 =( NAMED_UNIT ( * ) SI_UNIT ( $, .STERADIAN. ) SOLID_ANGLE_UNIT ( ) );
#143 = COORDINATED_UNIVERSAL_TIME_OFFSET ( 5, 0, .BEHIND. ) ;
#144 = PERSON_AND_ORGANIZATION ( #167, #137 ) ;
#145 = SHAPE_DEFINITION_REPRESENTATION ( #84, #74 ) ;
#146 = ORIENTED_EDGE ( 'NONE', *, *, #54, .T. ) ;
#147 = CARTESIAN_POINT ( 'NONE',  ( 0.000000000000000000, 0.000000000000000000, 2.000000000000000000 ) ) ;
#148 = CC_DESIGN_PERSON_AND_ORGANIZATION_ASSIGNMENT ( #136, #55, ( #112 ) ) ;
#149 = PERSON_AND_ORGANIZATION_ROLE ( 'classification_officer' ) ;
#150 = DIRECTION ( 'NONE',  ( 0.000000000000000000, 0.000000000000000000, 1.000000000000000000 ) ) ;
#151 = COORDINATED_UNIVERSAL_TIME_OFFSET ( 5, 0, .BEHIND. ) ;
#152 = CLOSED_SHELL ( 'NONE', ( #155, #26, #14, #96 ) ) ;
#153 = AXIS2_PLACEMENT_3D ( 'NONE', #119, #116, #39 ) ;
#154 = FACE_OUTER_BOUND ( 'NONE', #32, .T. ) ;
#155 = ADVANCED_FACE ( 'NONE', ( #16 ), #51, .T. ) ;
#156 = CC_DESIGN_DATE_AND_TIME_ASSIGNMENT ( #118, #129, ( #112 ) ) ;
#157 = EDGE_CURVE ( 'NONE', #53, #87, #126, .T. ) ;
#158 = CYLINDRICAL_SURFACE ( 'NONE', #88, 3.174999999999999822 ) ;
#159 = ORIENTED_EDGE ( 'NONE', *, *, #19, .T. ) ;
#160 = DIRECTION ( 'NONE',  ( 1.000000000000000000, 0.000000000000000000, 0.000000000000000000 ) ) ;
#161 = APPROVAL ( #128, 'UNSPECIFIED' ) ;
#162 = CALENDAR_DATE ( 2021, 8, 4 ) ;
#163 = EDGE_LOOP ( 'NONE', ( #20, #146 ) ) ;
#164 = EDGE_CURVE ( 'NONE', #141, #68, #175, .T. ) ;
#165 = APPROVAL_ROLE ( '' ) ;
#166 = DIRECTION ( 'NONE',  ( 1.000000000000000000, 0.000000000000000000, 0.000000000000000000 ) ) ;
#167 = PERSON ( 'UNSPECIFIED', 'UNSPECIFIED', 'UNSPECIFIED', ('UNSPECIFIED'), ('UNSPECIFIED'), ('UNSPECIFIED') ) ;
#168 = DIRECTION ( 'NONE',  ( -0.000000000000000000, -0.000000000000000000, -1.000000000000000000 ) ) ;
#169 = DIRECTION ( 'NONE',  ( 1.000000000000000000, 0.000000000000000000, -0.000000000000000000 ) ) ;
#170 = CIRCLE ( 'NONE', #125, 3.174999999999999822 ) ;
#171 = CARTESIAN_POINT ( 'NONE',  ( 0.000000000000000000, 0.000000000000000000, 0.000000000000000000 ) ) ;
#172 = PRODUCT ( 'Web Model 17219_17220', 'Web Model 17219_17220', '', ( #41 ) ) ;
#173 = APPROVAL_DATE_TIME ( #37, #161 ) ;
#174 = CC_DESIGN_APPROVAL ( #71, ( #135 ) ) ;
#175 = LINE ( 'NONE', #57, #5 ) ;
ENDSEC;
END-ISO-10303-21;
