ISO-10303-21;
HEADER;
FILE_DESCRIPTION (( 'STEP AP203' ),
    '1' );
FILE_NAME ('Web Model 14966_18331.step',
    '2021-06-28T15:53:22',
    ( '' ),
    ( '' ),
    'SwSTEP 2.0',
    'SolidWorks 2018',
    '' );
FILE_SCHEMA (( 'CONFIG_CONTROL_DESIGN' ));
ENDSEC;

DATA;
#1 = DIRECTION ( 'NONE',  ( 1.000000000000000000, 0.000000000000000000, 0.000000000000000000 ) ) ;
#2 = AXIS2_PLACEMENT_3D ( 'NONE', #97, #148, #20 ) ;
#3 = DATE_AND_TIME ( #41, #106 ) ;
#4 = CIRCLE ( 'NONE', #130, 25.00000000000000000 ) ;
#5 = CARTESIAN_POINT ( 'NONE',  ( -2.000000000000000000, 0.000000000000000000, 0.000000000000000000 ) ) ;
#6 = DIRECTION ( 'NONE',  ( 1.000000000000000000, 0.000000000000000000, 0.000000000000000000 ) ) ;
#7 = ORIENTED_EDGE ( 'NONE', *, *, #173, .T. ) ;
#8 = PERSON_AND_ORGANIZATION ( #25, #44 ) ;
#9 = DATE_TIME_ROLE ( 'creation_date' ) ;
#10 = AXIS2_PLACEMENT_3D ( 'NONE', #125, #166, #78 ) ;
#11 = PRODUCT_DEFINITION_SHAPE ( 'NONE', 'NONE',  #93 ) ;
#12 = SECURITY_CLASSIFICATION ( '', '', #48 ) ;
#13 = LINE ( 'NONE', #96, #122 ) ;
#14 = CC_DESIGN_APPROVAL ( #147, ( #93 ) ) ;
#15 = DIRECTION ( 'NONE',  ( 0.000000000000000000, 0.000000000000000000, 1.000000000000000000 ) ) ;
#16 = ADVANCED_FACE ( 'NONE', ( #19 ), #129, .T. ) ;
#17 = CC_DESIGN_DATE_AND_TIME_ASSIGNMENT ( #3, #9, ( #93 ) ) ;
#18 = CIRCLE ( 'NONE', #10, 25.00000000000000000 ) ;
#19 = FACE_OUTER_BOUND ( 'NONE', #27, .T. ) ;
#20 = DIRECTION ( 'NONE',  ( 0.000000000000000000, 0.000000000000000000, -1.000000000000000000 ) ) ;
#21 = PERSON_AND_ORGANIZATION_ROLE ( 'design_owner' ) ;
#22 = DATE_AND_TIME ( #135, #144 ) ;
#23 = DIRECTION ( 'NONE',  ( 1.000000000000000000, 0.000000000000000000, 0.000000000000000000 ) ) ;
#24 = CC_DESIGN_PERSON_AND_ORGANIZATION_ASSIGNMENT ( #88, #151, ( #93 ) ) ;
#25 = PERSON ( 'UNSPECIFIED', 'UNSPECIFIED', 'UNSPECIFIED', ('UNSPECIFIED'), ('UNSPECIFIED'), ('UNSPECIFIED') ) ;
#26 = DATE_AND_TIME ( #32, #39 ) ;
#27 = EDGE_LOOP ( 'NONE', ( #85, #165, #157, #71 ) ) ;
#28 = LOCAL_TIME ( 11, 53, 22.00000000000000000, #72 ) ;
#29 = PERSON_AND_ORGANIZATION ( #25, #44 ) ;
#30 = CARTESIAN_POINT ( 'NONE',  ( 2.000000000000000000, 0.000000000000000000, 25.00000000000000000 ) ) ;
#31 = CC_DESIGN_DATE_AND_TIME_ASSIGNMENT ( #61, #102, ( #12 ) ) ;
#32 = CALENDAR_DATE ( 2021, 28, 6 ) ;
#33 = APPLICATION_PROTOCOL_DEFINITION ( 'international standard', 'config_control_design', 1994, #112 ) ;
#34 = APPROVAL_STATUS ( 'not_yet_approved' ) ;
#35 = MECHANICAL_CONTEXT ( 'NONE', #112, 'mechanical' ) ;
#36 = COORDINATED_UNIVERSAL_TIME_OFFSET ( 5, 0, .BEHIND. ) ;
#37 = VERTEX_POINT ( 'NONE', #90 ) ;
#38 = AXIS2_PLACEMENT_3D ( 'NONE', #123, #111, #23 ) ;
#39 = LOCAL_TIME ( 11, 53, 22.00000000000000000, #49 ) ;
#40 = UNCERTAINTY_MEASURE_WITH_UNIT (LENGTH_MEASURE( 1.000000000000000082E-05 ), #46, 'distance_accuracy_value', 'NONE');
#41 = CALENDAR_DATE ( 2021, 28, 6 ) ;
#42 = PERSON_AND_ORGANIZATION ( #25, #44 ) ;
#43 = APPROVAL ( #34, 'UNSPECIFIED' ) ;
#44 = ORGANIZATION ( 'UNSPECIFIED', 'UNSPECIFIED', '' ) ;
#45 = DIRECTION ( 'NONE',  ( 0.000000000000000000, 0.000000000000000000, -1.000000000000000000 ) ) ;
#46 =( LENGTH_UNIT ( ) NAMED_UNIT ( * ) SI_UNIT ( .MILLI., .METRE. ) );
#47 = DIRECTION ( 'NONE',  ( 0.000000000000000000, 0.000000000000000000, -1.000000000000000000 ) ) ;
#48 = SECURITY_CLASSIFICATION_LEVEL ( 'unclassified' ) ;
#49 = COORDINATED_UNIVERSAL_TIME_OFFSET ( 5, 0, .BEHIND. ) ;
#50 = CARTESIAN_POINT ( 'NONE',  ( 2.000000000000000000, 3.061616997868383043E-15, -25.00000000000000000 ) ) ;
#51 = APPROVAL_ROLE ( '' ) ;
#52 = CC_DESIGN_SECURITY_CLASSIFICATION ( #12, ( #58 ) ) ;
#53 = CARTESIAN_POINT ( 'NONE',  ( 2.000000000000000000, 0.000000000000000000, 0.000000000000000000 ) ) ;
#54 = SHAPE_DEFINITION_REPRESENTATION ( #11, #127 ) ;
#55 = ORIENTED_EDGE ( 'NONE', *, *, #173, .F. ) ;
#56 = PERSON_AND_ORGANIZATION ( #25, #44 ) ;
#57 = EDGE_LOOP ( 'NONE', ( #158, #100, #94, #7 ) ) ;
#58 = PRODUCT_DEFINITION_FORMATION_WITH_SPECIFIED_SOURCE ( 'ANY', '', #142, .NOT_KNOWN. ) ;
#59 = CARTESIAN_POINT ( 'NONE',  ( -2.000000000000000000, 0.000000000000000000, 25.00000000000000000 ) ) ;
#60 = ADVANCED_FACE ( 'NONE', ( #67 ), #75, .F. ) ;
#61 = DATE_AND_TIME ( #116, #69 ) ;
#62 = DIRECTION ( 'NONE',  ( 1.000000000000000000, 0.000000000000000000, 0.000000000000000000 ) ) ;
#63 = DIRECTION ( 'NONE',  ( 0.000000000000000000, 0.000000000000000000, -1.000000000000000000 ) ) ;
#64 = AXIS2_PLACEMENT_3D ( 'NONE', #107, #6, #47 ) ;
#65 = DIRECTION ( 'NONE',  ( 1.000000000000000000, 0.000000000000000000, 0.000000000000000000 ) ) ;
#66 = LINE ( 'NONE', #50, #128 ) ;
#67 = FACE_OUTER_BOUND ( 'NONE', #119, .T. ) ;
#68 = PERSON_AND_ORGANIZATION_ROLE ( 'design_supplier' ) ;
#69 = LOCAL_TIME ( 11, 53, 22.00000000000000000, #121 ) ;
#70 = AXIS2_PLACEMENT_3D ( 'NONE', #53, #171, #139 ) ;
#71 = ORIENTED_EDGE ( 'NONE', *, *, #101, .F. ) ;
#72 = COORDINATED_UNIVERSAL_TIME_OFFSET ( 5, 0, .BEHIND. ) ;
#73 = CC_DESIGN_PERSON_AND_ORGANIZATION_ASSIGNMENT ( #98, #169, ( #58 ) ) ;
#74 = EDGE_CURVE ( 'NONE', #126, #37, #66, .T. ) ;
#75 = PLANE ( 'NONE',  #64 ) ;
#76 = ORIENTED_EDGE ( 'NONE', *, *, #99, .F. ) ;
#77 = APPROVAL_PERSON_ORGANIZATION ( #8, #156, #136 ) ;
#78 = DIRECTION ( 'NONE',  ( 0.000000000000000000, 0.000000000000000000, -1.000000000000000000 ) ) ;
#79 = CC_DESIGN_PERSON_AND_ORGANIZATION_ASSIGNMENT ( #83, #68, ( #58 ) ) ;
#80 = APPROVAL_STATUS ( 'not_yet_approved' ) ;
#81 = APPROVAL_DATE_TIME ( #22, #43 ) ;
#82 = PERSON_AND_ORGANIZATION ( #25, #44 ) ;
#83 = PERSON_AND_ORGANIZATION ( #25, #44 ) ;
#84 = CC_DESIGN_APPROVAL ( #43, ( #12 ) ) ;
#85 = ORIENTED_EDGE ( 'NONE', *, *, #104, .F. ) ;
#86 = CARTESIAN_POINT ( 'NONE',  ( 2.000000000000000000, 0.000000000000000000, 0.000000000000000000 ) ) ;
#87 = CIRCLE ( 'NONE', #115, 25.00000000000000000 ) ;
#88 = PERSON_AND_ORGANIZATION ( #25, #44 ) ;
#89 = APPLICATION_CONTEXT ( 'configuration controlled 3d designs of mechanical parts and assemblies' ) ;
#90 = CARTESIAN_POINT ( 'NONE',  ( -2.000000000000000000, 3.061616997868383043E-15, -25.00000000000000000 ) ) ;
#91 = CIRCLE ( 'NONE', #2, 25.00000000000000000 ) ;
#92 = PRODUCT_RELATED_PRODUCT_CATEGORY ( 'detail', '', ( #142 ) ) ;
#93 = PRODUCT_DEFINITION ( 'UNKNOWN', '', #58, #143 ) ;
#94 = ORIENTED_EDGE ( 'NONE', *, *, #101, .T. ) ;
#95 = EDGE_LOOP ( 'NONE', ( #172, #138 ) ) ;
#96 = CARTESIAN_POINT ( 'NONE',  ( 2.000000000000000000, 0.000000000000000000, 25.00000000000000000 ) ) ;
#97 = CARTESIAN_POINT ( 'NONE',  ( -2.000000000000000000, 0.000000000000000000, 0.000000000000000000 ) ) ;
#98 = PERSON_AND_ORGANIZATION ( #25, #44 ) ;
#99 = EDGE_CURVE ( 'NONE', #37, #110, #91, .T. ) ;
#100 = ORIENTED_EDGE ( 'NONE', *, *, #141, .F. ) ;
#101 = EDGE_CURVE ( 'NONE', #103, #110, #13, .T. ) ;
#102 = DATE_TIME_ROLE ( 'classification_date' ) ;
#103 = VERTEX_POINT ( 'NONE', #30 ) ;
#104 = EDGE_CURVE ( 'NONE', #126, #103, #18, .T. ) ;
#105 = APPROVAL_PERSON_ORGANIZATION ( #42, #147, #51 ) ;
#106 = LOCAL_TIME ( 11, 53, 22.00000000000000000, #36 ) ;
#107 = CARTESIAN_POINT ( 'NONE',  ( -2.000000000000000000, 0.000000000000000000, 0.000000000000000000 ) ) ;
#108 = APPROVAL_PERSON_ORGANIZATION ( #56, #43, #153 ) ;
#109 = CARTESIAN_POINT ( 'NONE',  ( 2.000000000000000000, 0.000000000000000000, 0.000000000000000000 ) ) ;
#110 = VERTEX_POINT ( 'NONE', #59 ) ;
#111 = DIRECTION ( 'NONE',  ( 0.000000000000000000, 0.000000000000000000, 1.000000000000000000 ) ) ;
#112 = APPLICATION_CONTEXT ( 'configuration controlled 3d designs of mechanical parts and assemblies' ) ;
#113 = APPROVAL_STATUS ( 'not_yet_approved' ) ;
#114 = MANIFOLD_SOLID_BREP ( 'Boss-Extrude1', #140 ) ;
#115 = AXIS2_PLACEMENT_3D ( 'NONE', #5, #62, #63 ) ;
#116 = CALENDAR_DATE ( 2021, 28, 6 ) ;
#117 = APPLICATION_PROTOCOL_DEFINITION ( 'international standard', 'config_control_design', 1994, #89 ) ;
#118 = FACE_OUTER_BOUND ( 'NONE', #95, .T. ) ;
#119 = EDGE_LOOP ( 'NONE', ( #55, #76 ) ) ;
#120 = CC_DESIGN_PERSON_AND_ORGANIZATION_ASSIGNMENT ( #29, #134, ( #12 ) ) ;
#121 = COORDINATED_UNIVERSAL_TIME_OFFSET ( 5, 0, .BEHIND. ) ;
#122 = VECTOR ( 'NONE', #175, 1000.000000000000000 ) ;
#123 = CARTESIAN_POINT ( 'NONE',  ( 0.000000000000000000, 0.000000000000000000, 0.000000000000000000 ) ) ;
#124 =( GEOMETRIC_REPRESENTATION_CONTEXT ( 3 ) GLOBAL_UNCERTAINTY_ASSIGNED_CONTEXT ( ( #40 ) ) GLOBAL_UNIT_ASSIGNED_CONTEXT ( ( #46, #133, #149 ) ) REPRESENTATION_CONTEXT ( 'NONE', 'WORKASPACE' ) );
#125 = CARTESIAN_POINT ( 'NONE',  ( 2.000000000000000000, 0.000000000000000000, 0.000000000000000000 ) ) ;
#126 = VERTEX_POINT ( 'NONE', #145 ) ;
#127 = ADVANCED_BREP_SHAPE_REPRESENTATION ( 'Web Model 14966_18331', ( #114, #38 ), #124 ) ;
#128 = VECTOR ( 'NONE', #159, 1000.000000000000000 ) ;
#129 = CYLINDRICAL_SURFACE ( 'NONE', #70, 25.00000000000000000 ) ;
#130 = AXIS2_PLACEMENT_3D ( 'NONE', #109, #65, #45 ) ;
#131 = FACE_OUTER_BOUND ( 'NONE', #57, .T. ) ;
#132 = PLANE ( 'NONE',  #154 ) ;
#133 =( NAMED_UNIT ( * ) PLANE_ANGLE_UNIT ( ) SI_UNIT ( $, .RADIAN. ) );
#134 = PERSON_AND_ORGANIZATION_ROLE ( 'classification_officer' ) ;
#135 = CALENDAR_DATE ( 2021, 28, 6 ) ;
#136 = APPROVAL_ROLE ( '' ) ;
#137 = COORDINATED_UNIVERSAL_TIME_OFFSET ( 5, 0, .BEHIND. ) ;
#138 = ORIENTED_EDGE ( 'NONE', *, *, #104, .T. ) ;
#139 = DIRECTION ( 'NONE',  ( 0.000000000000000000, 0.000000000000000000, 1.000000000000000000 ) ) ;
#140 = CLOSED_SHELL ( 'NONE', ( #16, #162, #168, #60 ) ) ;
#141 = EDGE_CURVE ( 'NONE', #103, #126, #4, .T. ) ;
#142 = PRODUCT ( 'Web Model 14966_18331', 'Web Model 14966_18331', '', ( #35 ) ) ;
#143 = DESIGN_CONTEXT ( 'detailed design', #89, 'design' ) ;
#144 = LOCAL_TIME ( 11, 53, 22.00000000000000000, #137 ) ;
#145 = CARTESIAN_POINT ( 'NONE',  ( 2.000000000000000000, 3.061616997868383043E-15, -25.00000000000000000 ) ) ;
#146 = DATE_AND_TIME ( #167, #28 ) ;
#147 = APPROVAL ( #113, 'UNSPECIFIED' ) ;
#148 = DIRECTION ( 'NONE',  ( 1.000000000000000000, 0.000000000000000000, 0.000000000000000000 ) ) ;
#149 =( NAMED_UNIT ( * ) SI_UNIT ( $, .STERADIAN. ) SOLID_ANGLE_UNIT ( ) );
#150 = DIRECTION ( 'NONE',  ( 0.000000000000000000, 0.000000000000000000, -1.000000000000000000 ) ) ;
#151 = PERSON_AND_ORGANIZATION_ROLE ( 'creator' ) ;
#152 = AXIS2_PLACEMENT_3D ( 'NONE', #86, #163, #15 ) ;
#153 = APPROVAL_ROLE ( '' ) ;
#154 = AXIS2_PLACEMENT_3D ( 'NONE', #164, #1, #150 ) ;
#155 = CYLINDRICAL_SURFACE ( 'NONE', #152, 25.00000000000000000 ) ;
#156 = APPROVAL ( #80, 'UNSPECIFIED' ) ;
#157 = ORIENTED_EDGE ( 'NONE', *, *, #99, .T. ) ;
#158 = ORIENTED_EDGE ( 'NONE', *, *, #74, .F. ) ;
#159 = DIRECTION ( 'NONE',  ( -1.000000000000000000, -0.000000000000000000, -0.000000000000000000 ) ) ;
#160 = CC_DESIGN_PERSON_AND_ORGANIZATION_ASSIGNMENT ( #82, #21, ( #142 ) ) ;
#161 = APPROVAL_DATE_TIME ( #26, #156 ) ;
#162 = ADVANCED_FACE ( 'NONE', ( #131 ), #155, .T. ) ;
#163 = DIRECTION ( 'NONE',  ( -1.000000000000000000, -0.000000000000000000, -0.000000000000000000 ) ) ;
#164 = CARTESIAN_POINT ( 'NONE',  ( 2.000000000000000000, 0.000000000000000000, 0.000000000000000000 ) ) ;
#165 = ORIENTED_EDGE ( 'NONE', *, *, #74, .T. ) ;
#166 = DIRECTION ( 'NONE',  ( 1.000000000000000000, 0.000000000000000000, 0.000000000000000000 ) ) ;
#167 = CALENDAR_DATE ( 2021, 28, 6 ) ;
#168 = ADVANCED_FACE ( 'NONE', ( #118 ), #132, .T. ) ;
#169 = PERSON_AND_ORGANIZATION_ROLE ( 'creator' ) ;
#170 = CC_DESIGN_APPROVAL ( #156, ( #58 ) ) ;
#171 = DIRECTION ( 'NONE',  ( -1.000000000000000000, -0.000000000000000000, -0.000000000000000000 ) ) ;
#172 = ORIENTED_EDGE ( 'NONE', *, *, #141, .T. ) ;
#173 = EDGE_CURVE ( 'NONE', #110, #37, #87, .T. ) ;
#174 = APPROVAL_DATE_TIME ( #146, #147 ) ;
#175 = DIRECTION ( 'NONE',  ( -1.000000000000000000, -0.000000000000000000, -0.000000000000000000 ) ) ;
ENDSEC;
END-ISO-10303-21;
