ISO-10303-21;
HEADER;
FILE_DESCRIPTION (( 'STEP AP203' ),
    '1' );
FILE_NAME ('Web Model 68807_68809.step',
    '2017-03-06T17:53:32',
    ( '' ),
    ( '' ),
    'SwSTEP 2.0',
    'SolidWorks 2016',
    '' );
FILE_SCHEMA (( 'CONFIG_CONTROL_DESIGN' ));
ENDSEC;

DATA;
#1 = DIRECTION ( 'NONE',  ( 0.0000000000000000000, 0.0000000000000000000, 1.000000000000000000 ) ) ;
#2 = APPROVAL ( #130, 'UNSPECIFIED' ) ;
#3 = COORDINATED_UNIVERSAL_TIME_OFFSET ( 5, 0, .BEHIND. ) ;
#4 = PERSON_AND_ORGANIZATION ( #111, #30 ) ;
#5 = PERSON_AND_ORGANIZATION_ROLE ( 'design_supplier' ) ;
#6 = APPROVAL_DATE_TIME ( #11, #49 ) ;
#7 = DIRECTION ( 'NONE',  ( 0.0000000000000000000, 0.0000000000000000000, 1.000000000000000000 ) ) ;
#8 = DATE_AND_TIME ( #163, #97 ) ;
#9 = CC_DESIGN_DATE_AND_TIME_ASSIGNMENT ( #8, #125, ( #19 ) ) ;
#10 = DIRECTION ( 'NONE',  ( -0.0000000000000000000, -0.0000000000000000000, -1.000000000000000000 ) ) ;
#11 = DATE_AND_TIME ( #14, #15 ) ;
#12 = PERSON_AND_ORGANIZATION ( #111, #30 ) ;
#13 = CC_DESIGN_PERSON_AND_ORGANIZATION_ASSIGNMENT ( #71, #37, ( #19 ) ) ;
#14 = CALENDAR_DATE ( 2017, 6, 3 ) ;
#15 = LOCAL_TIME ( 12, 53, 32.00000000000000000, #16 ) ;
#16 = COORDINATED_UNIVERSAL_TIME_OFFSET ( 5, 0, .BEHIND. ) ;
#17 = DIRECTION ( 'NONE',  ( 1.000000000000000000, 0.0000000000000000000, 0.0000000000000000000 ) ) ;
#18 = APPROVAL_PERSON_ORGANIZATION ( #20, #49, #66 ) ;
#19 = SECURITY_CLASSIFICATION ( '', '', #25 ) ;
#20 = PERSON_AND_ORGANIZATION ( #111, #30 ) ;
#21 = APPROVAL_STATUS ( 'not_yet_approved' ) ;
#22 = DIRECTION ( 'NONE',  ( 0.0000000000000000000, 0.0000000000000000000, 1.000000000000000000 ) ) ;
#23 = CC_DESIGN_PERSON_AND_ORGANIZATION_ASSIGNMENT ( #80, #5, ( #41 ) ) ;
#24 = CARTESIAN_POINT ( 'NONE',  ( 0.0000000000000000000, 0.0000000000000000000, -2.500000000000000000 ) ) ;
#25 = SECURITY_CLASSIFICATION_LEVEL ( 'unclassified' ) ;
#26 = LOCAL_TIME ( 12, 53, 32.00000000000000000, #164 ) ;
#27 = PERSON_AND_ORGANIZATION ( #111, #30 ) ;
#28 = COORDINATED_UNIVERSAL_TIME_OFFSET ( 5, 0, .BEHIND. ) ;
#29 = CC_DESIGN_PERSON_AND_ORGANIZATION_ASSIGNMENT ( #73, #76, ( #41 ) ) ;
#30 = ORGANIZATION ( 'UNSPECIFIED', 'UNSPECIFIED', '' ) ;
#31 = ADVANCED_BREP_SHAPE_REPRESENTATION ( 'Web Model 68807_68809', ( #104, #44 ), #156 ) ;
#32 = CC_DESIGN_APPROVAL ( #38, ( #41 ) ) ;
#33 = SHAPE_DEFINITION_REPRESENTATION ( #78, #31 ) ;
#34 = ADVANCED_FACE ( 'NONE', ( #159 ), #110, .T. ) ;
#35 = APPROVAL_DATE_TIME ( #100, #2 ) ;
#36 = ORIENTED_EDGE ( 'NONE', *, *, #147, .F. ) ;
#37 = PERSON_AND_ORGANIZATION_ROLE ( 'classification_officer' ) ;
#38 = APPROVAL ( #21, 'UNSPECIFIED' ) ;
#39 = VERTEX_POINT ( 'NONE', #158 ) ;
#40 = CLOSED_SHELL ( 'NONE', ( #123, #101, #34, #153 ) ) ;
#41 = PRODUCT_DEFINITION_FORMATION_WITH_SPECIFIED_SOURCE ( 'ANY', '', #171, .NOT_KNOWN. ) ;
#42 = APPROVAL_PERSON_ORGANIZATION ( #160, #2, #138 ) ;
#43 = ORIENTED_EDGE ( 'NONE', *, *, #137, .F. ) ;
#44 = AXIS2_PLACEMENT_3D ( 'NONE', #92, #22, #50 ) ;
#45 = VERTEX_POINT ( 'NONE', #52 ) ;
#46 = DIRECTION ( 'NONE',  ( 1.000000000000000000, 0.0000000000000000000, -0.0000000000000000000 ) ) ;
#47 = EDGE_LOOP ( 'NONE', ( #173, #114, #113, #75 ) ) ;
#48 = APPLICATION_CONTEXT ( 'configuration controlled 3d designs of mechanical parts and assemblies' ) ;
#49 = APPROVAL ( #65, 'UNSPECIFIED' ) ;
#50 = DIRECTION ( 'NONE',  ( 1.000000000000000000, 0.0000000000000000000, 0.0000000000000000000 ) ) ;
#51 = CALENDAR_DATE ( 2017, 6, 3 ) ;
#52 = CARTESIAN_POINT ( 'NONE',  ( 12.50000000000000000, 1.530808498934191500E-015, 2.500000000000000000 ) ) ;
#53 = CARTESIAN_POINT ( 'NONE',  ( -12.50000000000000000, 0.0000000000000000000, -2.500000000000000000 ) ) ;
#54 = CC_DESIGN_PERSON_AND_ORGANIZATION_ASSIGNMENT ( #4, #70, ( #68 ) ) ;
#55 = ORIENTED_EDGE ( 'NONE', *, *, #147, .T. ) ;
#56 = CC_DESIGN_APPROVAL ( #49, ( #68 ) ) ;
#57 = CC_DESIGN_PERSON_AND_ORGANIZATION_ASSIGNMENT ( #27, #61, ( #171 ) ) ;
#58 = CYLINDRICAL_SURFACE ( 'NONE', #121, 12.50000000000000000 ) ;
#59 = ORIENTED_EDGE ( 'NONE', *, *, #139, .F. ) ;
#60 = MECHANICAL_CONTEXT ( 'NONE', #48, 'mechanical' ) ;
#61 = PERSON_AND_ORGANIZATION_ROLE ( 'design_owner' ) ;
#62 = APPLICATION_CONTEXT ( 'configuration controlled 3d designs of mechanical parts and assemblies' ) ;
#63 = CC_DESIGN_DATE_AND_TIME_ASSIGNMENT ( #140, #106, ( #68 ) ) ;
#64 = APPLICATION_PROTOCOL_DEFINITION ( 'international standard', 'config_control_design', 1994, #62 ) ;
#65 = APPROVAL_STATUS ( 'not_yet_approved' ) ;
#66 = APPROVAL_ROLE ( '' ) ;
#67 = VERTEX_POINT ( 'NONE', #53 ) ;
#68 = PRODUCT_DEFINITION ( 'UNKNOWN', '', #41, #120 ) ;
#69 = VECTOR ( 'NONE', #143, 1000.000000000000000 ) ;
#70 = PERSON_AND_ORGANIZATION_ROLE ( 'creator' ) ;
#71 = PERSON_AND_ORGANIZATION ( #111, #30 ) ;
#72 = ORIENTED_EDGE ( 'NONE', *, *, #149, .T. ) ;
#73 = PERSON_AND_ORGANIZATION ( #111, #30 ) ;
#74 = CIRCLE ( 'NONE', #166, 12.50000000000000000 ) ;
#75 = ORIENTED_EDGE ( 'NONE', *, *, #127, .F. ) ;
#76 = PERSON_AND_ORGANIZATION_ROLE ( 'creator' ) ;
#77 = DATE_AND_TIME ( #94, #26 ) ;
#78 = PRODUCT_DEFINITION_SHAPE ( 'NONE', 'NONE',  #68 ) ;
#79 = CARTESIAN_POINT ( 'NONE',  ( 0.0000000000000000000, 0.0000000000000000000, -2.500000000000000000 ) ) ;
#80 = PERSON_AND_ORGANIZATION ( #111, #30 ) ;
#81 = DIRECTION ( 'NONE',  ( 1.000000000000000000, 0.0000000000000000000, 0.0000000000000000000 ) ) ;
#82 = CARTESIAN_POINT ( 'NONE',  ( 0.0000000000000000000, 0.0000000000000000000, 2.500000000000000000 ) ) ;
#83 = CYLINDRICAL_SURFACE ( 'NONE', #115, 12.50000000000000000 ) ;
#84 = DIRECTION ( 'NONE',  ( 0.0000000000000000000, 0.0000000000000000000, 1.000000000000000000 ) ) ;
#85 = ORIENTED_EDGE ( 'NONE', *, *, #133, .T. ) ;
#86 = APPROVAL_DATE_TIME ( #77, #38 ) ;
#87 = PLANE ( 'NONE',  #107 ) ;
#88 = FACE_OUTER_BOUND ( 'NONE', #89, .T. ) ;
#89 = EDGE_LOOP ( 'NONE', ( #43, #36, #116, #72 ) ) ;
#90 = APPLICATION_PROTOCOL_DEFINITION ( 'international standard', 'config_control_design', 1994, #48 ) ;
#91 = CARTESIAN_POINT ( 'NONE',  ( 0.0000000000000000000, 0.0000000000000000000, 2.500000000000000000 ) ) ;
#92 = CARTESIAN_POINT ( 'NONE',  ( 0.0000000000000000000, 0.0000000000000000000, 0.0000000000000000000 ) ) ;
#93 = AXIS2_PLACEMENT_3D ( 'NONE', #148, #1, #17 ) ;
#94 = CALENDAR_DATE ( 2017, 6, 3 ) ;
#95 = AXIS2_PLACEMENT_3D ( 'NONE', #152, #7, #105 ) ;
#96 = LOCAL_TIME ( 12, 53, 32.00000000000000000, #28 ) ;
#97 = LOCAL_TIME ( 12, 53, 32.00000000000000000, #170 ) ;
#98 = CARTESIAN_POINT ( 'NONE',  ( -12.50000000000000000, 0.0000000000000000000, 2.500000000000000000 ) ) ;
#99 = DIRECTION ( 'NONE',  ( 0.0000000000000000000, 0.0000000000000000000, 1.000000000000000000 ) ) ;
#100 = DATE_AND_TIME ( #51, #96 ) ;
#101 = ADVANCED_FACE ( 'NONE', ( #88 ), #83, .T. ) ;
#102 =( NAMED_UNIT ( * ) SI_UNIT ( $, .STERADIAN. ) SOLID_ANGLE_UNIT ( ) );
#103 = CALENDAR_DATE ( 2017, 6, 3 ) ;
#104 = MANIFOLD_SOLID_BREP ( 'Boss-Extrude1', #40 ) ;
#105 = DIRECTION ( 'NONE',  ( 1.000000000000000000, 0.0000000000000000000, 0.0000000000000000000 ) ) ;
#106 = DATE_TIME_ROLE ( 'creation_date' ) ;
#107 = AXIS2_PLACEMENT_3D ( 'NONE', #79, #109, #46 ) ;
#108 = FACE_OUTER_BOUND ( 'NONE', #47, .T. ) ;
#109 = DIRECTION ( 'NONE',  ( 0.0000000000000000000, 0.0000000000000000000, 1.000000000000000000 ) ) ;
#110 = PLANE ( 'NONE',  #175 ) ;
#111 = PERSON ( 'UNSPECIFIED', 'UNSPECIFIED', 'UNSPECIFIED', ('UNSPECIFIED'), ('UNSPECIFIED'), ('UNSPECIFIED') ) ;
#112 = CC_DESIGN_APPROVAL ( #2, ( #19 ) ) ;
#113 = ORIENTED_EDGE ( 'NONE', *, *, #139, .T. ) ;
#114 = ORIENTED_EDGE ( 'NONE', *, *, #137, .T. ) ;
#115 = AXIS2_PLACEMENT_3D ( 'NONE', #82, #169, #117 ) ;
#116 = ORIENTED_EDGE ( 'NONE', *, *, #127, .T. ) ;
#117 = DIRECTION ( 'NONE',  ( -1.000000000000000000, 0.0000000000000000000, 0.0000000000000000000 ) ) ;
#118 = CARTESIAN_POINT ( 'NONE',  ( 0.0000000000000000000, 0.0000000000000000000, 2.500000000000000000 ) ) ;
#119 = ORIENTED_EDGE ( 'NONE', *, *, #149, .F. ) ;
#120 = DESIGN_CONTEXT ( 'detailed design', #62, 'design' ) ;
#121 = AXIS2_PLACEMENT_3D ( 'NONE', #91, #10, #161 ) ;
#122 = DIRECTION ( 'NONE',  ( 1.000000000000000000, 0.0000000000000000000, 0.0000000000000000000 ) ) ;
#123 = ADVANCED_FACE ( 'NONE', ( #108 ), #58, .T. ) ;
#124 = APPROVAL_PERSON_ORGANIZATION ( #12, #38, #168 ) ;
#125 = DATE_TIME_ROLE ( 'classification_date' ) ;
#126 = EDGE_LOOP ( 'NONE', ( #119, #59 ) ) ;
#127 = EDGE_CURVE ( 'NONE', #172, #67, #144, .T. ) ;
#128 = FACE_OUTER_BOUND ( 'NONE', #126, .T. ) ;
#129 = CIRCLE ( 'NONE', #162, 12.50000000000000000 ) ;
#130 = APPROVAL_STATUS ( 'not_yet_approved' ) ;
#131 = CARTESIAN_POINT ( 'NONE',  ( -12.50000000000000000, 0.0000000000000000000, 2.500000000000000000 ) ) ;
#132 = CARTESIAN_POINT ( 'NONE',  ( 12.50000000000000000, 1.530808498934191500E-015, 2.500000000000000000 ) ) ;
#133 = EDGE_CURVE ( 'NONE', #45, #172, #74, .T. ) ;
#134 = UNCERTAINTY_MEASURE_WITH_UNIT (LENGTH_MEASURE( 1.000000000000000100E-005 ), #151, 'distance_accuracy_value', 'NONE');
#135 = CC_DESIGN_SECURITY_CLASSIFICATION ( #19, ( #41 ) ) ;
#136 = CIRCLE ( 'NONE', #95, 12.50000000000000000 ) ;
#137 = EDGE_CURVE ( 'NONE', #45, #39, #150, .T. ) ;
#138 = APPROVAL_ROLE ( '' ) ;
#139 = EDGE_CURVE ( 'NONE', #39, #67, #129, .T. ) ;
#140 = DATE_AND_TIME ( #103, #154 ) ;
#141 = DIRECTION ( 'NONE',  ( 0.0000000000000000000, 0.0000000000000000000, 1.000000000000000000 ) ) ;
#142 = PRODUCT_RELATED_PRODUCT_CATEGORY ( 'detail', '', ( #171 ) ) ;
#143 = DIRECTION ( 'NONE',  ( -0.0000000000000000000, -0.0000000000000000000, -1.000000000000000000 ) ) ;
#144 = LINE ( 'NONE', #131, #174 ) ;
#145 = DIRECTION ( 'NONE',  ( -0.0000000000000000000, -0.0000000000000000000, -1.000000000000000000 ) ) ;
#146 = CIRCLE ( 'NONE', #93, 12.50000000000000000 ) ;
#147 = EDGE_CURVE ( 'NONE', #172, #45, #146, .T. ) ;
#148 = CARTESIAN_POINT ( 'NONE',  ( 0.0000000000000000000, 0.0000000000000000000, 2.500000000000000000 ) ) ;
#149 = EDGE_CURVE ( 'NONE', #67, #39, #136, .T. ) ;
#150 = LINE ( 'NONE', #132, #69 ) ;
#151 =( LENGTH_UNIT ( ) NAMED_UNIT ( * ) SI_UNIT ( .MILLI., .METRE. ) );
#152 = CARTESIAN_POINT ( 'NONE',  ( 0.0000000000000000000, 0.0000000000000000000, -2.500000000000000000 ) ) ;
#153 = ADVANCED_FACE ( 'NONE', ( #128 ), #87, .F. ) ;
#154 = LOCAL_TIME ( 12, 53, 32.00000000000000000, #3 ) ;
#155 =( NAMED_UNIT ( * ) PLANE_ANGLE_UNIT ( ) SI_UNIT ( $, .RADIAN. ) );
#156 =( GEOMETRIC_REPRESENTATION_CONTEXT ( 3 ) GLOBAL_UNCERTAINTY_ASSIGNED_CONTEXT ( ( #134 ) ) GLOBAL_UNIT_ASSIGNED_CONTEXT ( ( #151, #155, #102 ) ) REPRESENTATION_CONTEXT ( 'NONE', 'WORKASPACE' ) );
#157 = CARTESIAN_POINT ( 'NONE',  ( 0.0000000000000000000, 0.0000000000000000000, 2.500000000000000000 ) ) ;
#158 = CARTESIAN_POINT ( 'NONE',  ( 12.50000000000000000, 1.530808498934191500E-015, -2.500000000000000000 ) ) ;
#159 = FACE_OUTER_BOUND ( 'NONE', #165, .T. ) ;
#160 = PERSON_AND_ORGANIZATION ( #111, #30 ) ;
#161 = DIRECTION ( 'NONE',  ( -1.000000000000000000, 0.0000000000000000000, 0.0000000000000000000 ) ) ;
#162 = AXIS2_PLACEMENT_3D ( 'NONE', #24, #99, #122 ) ;
#163 = CALENDAR_DATE ( 2017, 6, 3 ) ;
#164 = COORDINATED_UNIVERSAL_TIME_OFFSET ( 5, 0, .BEHIND. ) ;
#165 = EDGE_LOOP ( 'NONE', ( #55, #85 ) ) ;
#166 = AXIS2_PLACEMENT_3D ( 'NONE', #118, #141, #81 ) ;
#167 = DIRECTION ( 'NONE',  ( 1.000000000000000000, 0.0000000000000000000, -0.0000000000000000000 ) ) ;
#168 = APPROVAL_ROLE ( '' ) ;
#169 = DIRECTION ( 'NONE',  ( -0.0000000000000000000, -0.0000000000000000000, -1.000000000000000000 ) ) ;
#170 = COORDINATED_UNIVERSAL_TIME_OFFSET ( 5, 0, .BEHIND. ) ;
#171 = PRODUCT ( 'Web Model 68807_68809', 'Web Model 68807_68809', '', ( #60 ) ) ;
#172 = VERTEX_POINT ( 'NONE', #98 ) ;
#173 = ORIENTED_EDGE ( 'NONE', *, *, #133, .F. ) ;
#174 = VECTOR ( 'NONE', #145, 1000.000000000000000 ) ;
#175 = AXIS2_PLACEMENT_3D ( 'NONE', #157, #84, #167 ) ;
ENDSEC;
END-ISO-10303-21;
