ISO-10303-21;
HEADER;
FILE_DESCRIPTION (( 'STEP AP203' ),
    '1' );
FILE_NAME ('Web Model 84455.STEP',
    '2017-02-01T15:44:20',
    ( '' ),
    ( '' ),
    'SwSTEP 2.0',
    'SolidWorks 2016',
    '' );
FILE_SCHEMA (( 'CONFIG_CONTROL_DESIGN' ));
ENDSEC;

DATA;
#1 = EDGE_LOOP ( 'NONE', ( #31, #60, #34, #52 ) ) ;
#2 = EDGE_CURVE ( 'NONE', #101, #128, #122, .T. ) ;
#3 = VERTEX_POINT ( 'NONE', #12 ) ;
#4 = AXIS2_PLACEMENT_3D ( 'NONE', #10, #9, #38 ) ;
#5 = AXIS2_PLACEMENT_3D ( 'NONE', #100, #25, #55 ) ;
#6 = DATE_TIME_ROLE ( 'creation_date' ) ;
#7 = CARTESIAN_POINT ( 'NONE',  ( 0.0000000000000000000, 0.0000000000000000000, 0.0000000000000000000 ) ) ;
#8 = PERSON_AND_ORGANIZATION_ROLE ( 'creator' ) ;
#9 = DIRECTION ( 'NONE',  ( 0.0000000000000000000, 0.0000000000000000000, 1.000000000000000000 ) ) ;
#10 = CARTESIAN_POINT ( 'NONE',  ( 0.0000000000000000000, 0.0000000000000000000, 3.000000000000000000 ) ) ;
#11 = AXIS2_PLACEMENT_3D ( 'NONE', #37, #113, #66 ) ;
#12 = CARTESIAN_POINT ( 'NONE',  ( -12.50000000000000000, 0.0000000000000000000, 3.000000000000000000 ) ) ;
#13 = DATE_AND_TIME ( #116, #23 ) ;
#14 = EDGE_LOOP ( 'NONE', ( #74, #111 ) ) ;
#15 = CC_DESIGN_PERSON_AND_ORGANIZATION_ASSIGNMENT ( #126, #93, ( #124 ) ) ;
#16 = DATE_AND_TIME ( #75, #120 ) ;
#17 = CC_DESIGN_PERSON_AND_ORGANIZATION_ASSIGNMENT ( #92, #67, ( #76 ) ) ;
#18 = APPROVAL_DATE_TIME ( #50, #80 ) ;
#19 = FACE_OUTER_BOUND ( 'NONE', #14, .T. ) ;
#20 = ADVANCED_FACE ( 'NONE', ( #137 ), #156, .T. ) ;
#21 = PERSON_AND_ORGANIZATION_ROLE ( 'design_supplier' ) ;
#22 = APPROVAL_ROLE ( '' ) ;
#23 = LOCAL_TIME ( 10, 44, 20.00000000000000000, #41 ) ;
#24 = CARTESIAN_POINT ( 'NONE',  ( 12.50000000000000000, 1.530808498934191500E-015, 0.0000000000000000000 ) ) ;
#25 = DIRECTION ( 'NONE',  ( 0.0000000000000000000, 0.0000000000000000000, 1.000000000000000000 ) ) ;
#26 = EDGE_CURVE ( 'NONE', #160, #3, #43, .T. ) ;
#27 = CC_DESIGN_APPROVAL ( #36, ( #124 ) ) ;
#28 = DATE_AND_TIME ( #65, #89 ) ;
#29 = AXIS2_PLACEMENT_3D ( 'NONE', #167, #49, #140 ) ;
#30 = DATE_AND_TIME ( #40, #33 ) ;
#31 = ORIENTED_EDGE ( 'NONE', *, *, #44, .F. ) ;
#32 = DIRECTION ( 'NONE',  ( 0.0000000000000000000, 0.0000000000000000000, 1.000000000000000000 ) ) ;
#33 = LOCAL_TIME ( 10, 44, 20.00000000000000000, #143 ) ;
#34 = ORIENTED_EDGE ( 'NONE', *, *, #163, .T. ) ;
#35 = PERSON_AND_ORGANIZATION_ROLE ( 'classification_officer' ) ;
#36 = APPROVAL ( #108, 'UNSPECIFIED' ) ;
#37 = CARTESIAN_POINT ( 'NONE',  ( 0.0000000000000000000, 0.0000000000000000000, 0.0000000000000000000 ) ) ;
#38 = DIRECTION ( 'NONE',  ( 1.000000000000000000, 0.0000000000000000000, -0.0000000000000000000 ) ) ;
#39 = DIRECTION ( 'NONE',  ( 0.0000000000000000000, 0.0000000000000000000, 1.000000000000000000 ) ) ;
#40 = CALENDAR_DATE ( 2017, 1, 2 ) ;
#41 = COORDINATED_UNIVERSAL_TIME_OFFSET ( 5, 0, .BEHIND. ) ;
#42 =( LENGTH_UNIT ( ) NAMED_UNIT ( * ) SI_UNIT ( .MILLI., .METRE. ) );
#43 = CIRCLE ( 'NONE', #29, 12.50000000000000000 ) ;
#44 = EDGE_CURVE ( 'NONE', #160, #101, #169, .T. ) ;
#45 = CC_DESIGN_PERSON_AND_ORGANIZATION_ASSIGNMENT ( #82, #21, ( #124 ) ) ;
#46 = ADVANCED_BREP_SHAPE_REPRESENTATION ( 'Web Model 84455', ( #150, #5 ), #117 ) ;
#47 = CARTESIAN_POINT ( 'NONE',  ( -12.50000000000000000, 0.0000000000000000000, 0.0000000000000000000 ) ) ;
#48 = AXIS2_PLACEMENT_3D ( 'NONE', #131, #53, #142 ) ;
#49 = DIRECTION ( 'NONE',  ( 0.0000000000000000000, 0.0000000000000000000, 1.000000000000000000 ) ) ;
#50 = DATE_AND_TIME ( #107, #173 ) ;
#51 = ADVANCED_FACE ( 'NONE', ( #19 ), #125, .F. ) ;
#52 = ORIENTED_EDGE ( 'NONE', *, *, #151, .T. ) ;
#53 = DIRECTION ( 'NONE',  ( 0.0000000000000000000, 0.0000000000000000000, 1.000000000000000000 ) ) ;
#54 = PRODUCT_DEFINITION_SHAPE ( 'NONE', 'NONE',  #114 ) ;
#55 = DIRECTION ( 'NONE',  ( 1.000000000000000000, 0.0000000000000000000, 0.0000000000000000000 ) ) ;
#56 = EDGE_CURVE ( 'NONE', #3, #160, #57, .T. ) ;
#57 = CIRCLE ( 'NONE', #48, 12.50000000000000000 ) ;
#58 = PERSON_AND_ORGANIZATION ( #168, #118 ) ;
#59 = AXIS2_PLACEMENT_3D ( 'NONE', #174, #39, #70 ) ;
#60 = ORIENTED_EDGE ( 'NONE', *, *, #56, .F. ) ;
#61 = APPROVAL_DATE_TIME ( #28, #36 ) ;
#62 = ORIENTED_EDGE ( 'NONE', *, *, #56, .T. ) ;
#63 = CC_DESIGN_DATE_AND_TIME_ASSIGNMENT ( #13, #6, ( #114 ) ) ;
#64 = APPROVAL_STATUS ( 'not_yet_approved' ) ;
#65 = CALENDAR_DATE ( 2017, 1, 2 ) ;
#66 = DIRECTION ( 'NONE',  ( 1.000000000000000000, 0.0000000000000000000, 0.0000000000000000000 ) ) ;
#67 = PERSON_AND_ORGANIZATION_ROLE ( 'design_owner' ) ;
#68 = ORIENTED_EDGE ( 'NONE', *, *, #163, .F. ) ;
#69 = PERSON_AND_ORGANIZATION ( #168, #118 ) ;
#70 = DIRECTION ( 'NONE',  ( 1.000000000000000000, 0.0000000000000000000, -0.0000000000000000000 ) ) ;
#71 = DIRECTION ( 'NONE',  ( -0.0000000000000000000, -0.0000000000000000000, -1.000000000000000000 ) ) ;
#72 = CIRCLE ( 'NONE', #104, 12.50000000000000000 ) ;
#73 = SECURITY_CLASSIFICATION ( '', '', #96 ) ;
#74 = ORIENTED_EDGE ( 'NONE', *, *, #151, .F. ) ;
#75 = CALENDAR_DATE ( 2017, 1, 2 ) ;
#76 = PRODUCT ( 'Web Model 84455', 'Web Model 84455', '', ( #158 ) ) ;
#77 = ORIENTED_EDGE ( 'NONE', *, *, #26, .T. ) ;
#78 = CC_DESIGN_PERSON_AND_ORGANIZATION_ASSIGNMENT ( #58, #35, ( #73 ) ) ;
#79 = CARTESIAN_POINT ( 'NONE',  ( 12.50000000000000000, 1.530808498934191500E-015, 3.000000000000000000 ) ) ;
#80 = APPROVAL ( #64, 'UNSPECIFIED' ) ;
#81 = CARTESIAN_POINT ( 'NONE',  ( 0.0000000000000000000, 0.0000000000000000000, 3.000000000000000000 ) ) ;
#82 = PERSON_AND_ORGANIZATION ( #168, #118 ) ;
#83 = AXIS2_PLACEMENT_3D ( 'NONE', #112, #71, #172 ) ;
#84 =( NAMED_UNIT ( * ) PLANE_ANGLE_UNIT ( ) SI_UNIT ( $, .RADIAN. ) );
#85 = APPROVAL_PERSON_ORGANIZATION ( #164, #80, #22 ) ;
#86 = CYLINDRICAL_SURFACE ( 'NONE', #83, 12.50000000000000000 ) ;
#87 = UNCERTAINTY_MEASURE_WITH_UNIT (LENGTH_MEASURE( 1.000000000000000100E-005 ), #42, 'distance_accuracy_value', 'NONE');
#88 = APPROVAL ( #152, 'UNSPECIFIED' ) ;
#89 = LOCAL_TIME ( 10, 44, 20.00000000000000000, #162 ) ;
#90 = CC_DESIGN_APPROVAL ( #80, ( #114 ) ) ;
#91 = AXIS2_PLACEMENT_3D ( 'NONE', #81, #97, #139 ) ;
#92 = PERSON_AND_ORGANIZATION ( #168, #118 ) ;
#93 = PERSON_AND_ORGANIZATION_ROLE ( 'creator' ) ;
#94 = ADVANCED_FACE ( 'NONE', ( #145 ), #147, .T. ) ;
#95 = DIRECTION ( 'NONE',  ( 1.000000000000000000, 0.0000000000000000000, 0.0000000000000000000 ) ) ;
#96 = SECURITY_CLASSIFICATION_LEVEL ( 'unclassified' ) ;
#97 = DIRECTION ( 'NONE',  ( -0.0000000000000000000, -0.0000000000000000000, -1.000000000000000000 ) ) ;
#98 = SHAPE_DEFINITION_REPRESENTATION ( #54, #46 ) ;
#99 = APPLICATION_CONTEXT ( 'configuration controlled 3d designs of mechanical parts and assemblies' ) ;
#100 = CARTESIAN_POINT ( 'NONE',  ( 0.0000000000000000000, 0.0000000000000000000, 0.0000000000000000000 ) ) ;
#101 = VERTEX_POINT ( 'NONE', #24 ) ;
#102 = CC_DESIGN_SECURITY_CLASSIFICATION ( #73, ( #124 ) ) ;
#103 = APPROVAL_DATE_TIME ( #30, #88 ) ;
#104 = AXIS2_PLACEMENT_3D ( 'NONE', #7, #32, #95 ) ;
#105 = PERSON_AND_ORGANIZATION ( #168, #118 ) ;
#106 = ORIENTED_EDGE ( 'NONE', *, *, #44, .T. ) ;
#107 = CALENDAR_DATE ( 2017, 1, 2 ) ;
#108 = APPROVAL_STATUS ( 'not_yet_approved' ) ;
#109 = VECTOR ( 'NONE', #130, 1000.000000000000000 ) ;
#110 = CC_DESIGN_PERSON_AND_ORGANIZATION_ASSIGNMENT ( #105, #8, ( #114 ) ) ;
#111 = ORIENTED_EDGE ( 'NONE', *, *, #2, .F. ) ;
#112 = CARTESIAN_POINT ( 'NONE',  ( 0.0000000000000000000, 0.0000000000000000000, 3.000000000000000000 ) ) ;
#113 = DIRECTION ( 'NONE',  ( 0.0000000000000000000, 0.0000000000000000000, 1.000000000000000000 ) ) ;
#114 = PRODUCT_DEFINITION ( 'UNKNOWN', '', #124, #138 ) ;
#115 = DIRECTION ( 'NONE',  ( -0.0000000000000000000, -0.0000000000000000000, -1.000000000000000000 ) ) ;
#116 = CALENDAR_DATE ( 2017, 1, 2 ) ;
#117 =( GEOMETRIC_REPRESENTATION_CONTEXT ( 3 ) GLOBAL_UNCERTAINTY_ASSIGNED_CONTEXT ( ( #87 ) ) GLOBAL_UNIT_ASSIGNED_CONTEXT ( ( #42, #84, #132 ) ) REPRESENTATION_CONTEXT ( 'NONE', 'WORKASPACE' ) );
#118 = ORGANIZATION ( 'UNSPECIFIED', 'UNSPECIFIED', '' ) ;
#119 = ORIENTED_EDGE ( 'NONE', *, *, #2, .T. ) ;
#120 = LOCAL_TIME ( 10, 44, 20.00000000000000000, #157 ) ;
#121 = FACE_OUTER_BOUND ( 'NONE', #1, .T. ) ;
#122 = CIRCLE ( 'NONE', #11, 12.50000000000000000 ) ;
#123 = CC_DESIGN_DATE_AND_TIME_ASSIGNMENT ( #16, #171, ( #73 ) ) ;
#124 = PRODUCT_DEFINITION_FORMATION_WITH_SPECIFIED_SOURCE ( 'ANY', '', #76, .NOT_KNOWN. ) ;
#125 = PLANE ( 'NONE',  #59 ) ;
#126 = PERSON_AND_ORGANIZATION ( #168, #118 ) ;
#127 = CARTESIAN_POINT ( 'NONE',  ( 12.50000000000000000, 1.530808498934191500E-015, 3.000000000000000000 ) ) ;
#128 = VERTEX_POINT ( 'NONE', #47 ) ;
#129 = APPROVAL_ROLE ( '' ) ;
#130 = DIRECTION ( 'NONE',  ( -0.0000000000000000000, -0.0000000000000000000, -1.000000000000000000 ) ) ;
#131 = CARTESIAN_POINT ( 'NONE',  ( 0.0000000000000000000, 0.0000000000000000000, 3.000000000000000000 ) ) ;
#132 =( NAMED_UNIT ( * ) SI_UNIT ( $, .STERADIAN. ) SOLID_ANGLE_UNIT ( ) );
#133 = LINE ( 'NONE', #154, #159 ) ;
#134 = EDGE_LOOP ( 'NONE', ( #62, #77 ) ) ;
#135 = PRODUCT_RELATED_PRODUCT_CATEGORY ( 'detail', '', ( #76 ) ) ;
#136 = APPROVAL_PERSON_ORGANIZATION ( #69, #88, #129 ) ;
#137 = FACE_OUTER_BOUND ( 'NONE', #134, .T. ) ;
#138 = DESIGN_CONTEXT ( 'detailed design', #175, 'design' ) ;
#139 = DIRECTION ( 'NONE',  ( -1.000000000000000000, 0.0000000000000000000, 0.0000000000000000000 ) ) ;
#140 = DIRECTION ( 'NONE',  ( 1.000000000000000000, 0.0000000000000000000, 0.0000000000000000000 ) ) ;
#141 = APPLICATION_PROTOCOL_DEFINITION ( 'international standard', 'config_control_design', 1994, #175 ) ;
#142 = DIRECTION ( 'NONE',  ( 1.000000000000000000, 0.0000000000000000000, 0.0000000000000000000 ) ) ;
#143 = COORDINATED_UNIVERSAL_TIME_OFFSET ( 5, 0, .BEHIND. ) ;
#144 = APPLICATION_PROTOCOL_DEFINITION ( 'international standard', 'config_control_design', 1994, #99 ) ;
#145 = FACE_OUTER_BOUND ( 'NONE', #148, .T. ) ;
#146 = APPROVAL_PERSON_ORGANIZATION ( #166, #36, #155 ) ;
#147 = CYLINDRICAL_SURFACE ( 'NONE', #91, 12.50000000000000000 ) ;
#148 = EDGE_LOOP ( 'NONE', ( #153, #106, #119, #68 ) ) ;
#149 = COORDINATED_UNIVERSAL_TIME_OFFSET ( 5, 0, .BEHIND. ) ;
#150 = MANIFOLD_SOLID_BREP ( 'Extrude1', #165 ) ;
#151 = EDGE_CURVE ( 'NONE', #128, #101, #72, .T. ) ;
#152 = APPROVAL_STATUS ( 'not_yet_approved' ) ;
#153 = ORIENTED_EDGE ( 'NONE', *, *, #26, .F. ) ;
#154 = CARTESIAN_POINT ( 'NONE',  ( -12.50000000000000000, 0.0000000000000000000, 3.000000000000000000 ) ) ;
#155 = APPROVAL_ROLE ( '' ) ;
#156 = PLANE ( 'NONE',  #4 ) ;
#157 = COORDINATED_UNIVERSAL_TIME_OFFSET ( 5, 0, .BEHIND. ) ;
#158 = MECHANICAL_CONTEXT ( 'NONE', #99, 'mechanical' ) ;
#159 = VECTOR ( 'NONE', #115, 1000.000000000000000 ) ;
#160 = VERTEX_POINT ( 'NONE', #79 ) ;
#161 = CC_DESIGN_APPROVAL ( #88, ( #73 ) ) ;
#162 = COORDINATED_UNIVERSAL_TIME_OFFSET ( 5, 0, .BEHIND. ) ;
#163 = EDGE_CURVE ( 'NONE', #3, #128, #133, .T. ) ;
#164 = PERSON_AND_ORGANIZATION ( #168, #118 ) ;
#165 = CLOSED_SHELL ( 'NONE', ( #94, #170, #20, #51 ) ) ;
#166 = PERSON_AND_ORGANIZATION ( #168, #118 ) ;
#167 = CARTESIAN_POINT ( 'NONE',  ( 0.0000000000000000000, 0.0000000000000000000, 3.000000000000000000 ) ) ;
#168 = PERSON ( 'UNSPECIFIED', 'UNSPECIFIED', 'UNSPECIFIED', ('UNSPECIFIED'), ('UNSPECIFIED'), ('UNSPECIFIED') ) ;
#169 = LINE ( 'NONE', #127, #109 ) ;
#170 = ADVANCED_FACE ( 'NONE', ( #121 ), #86, .T. ) ;
#171 = DATE_TIME_ROLE ( 'classification_date' ) ;
#172 = DIRECTION ( 'NONE',  ( -1.000000000000000000, 0.0000000000000000000, 0.0000000000000000000 ) ) ;
#173 = LOCAL_TIME ( 10, 44, 20.00000000000000000, #149 ) ;
#174 = CARTESIAN_POINT ( 'NONE',  ( 0.0000000000000000000, 0.0000000000000000000, 0.0000000000000000000 ) ) ;
#175 = APPLICATION_CONTEXT ( 'configuration controlled 3d designs of mechanical parts and assemblies' ) ;
ENDSEC;
END-ISO-10303-21;
