ISO-10303-21;
HEADER;
FILE_DESCRIPTION (( 'STEP AP203' ),
    '1' );
FILE_NAME ('Web Model 32269_46695.step',
    '2020-01-31T18:53:16',
    ( '' ),
    ( '' ),
    'SwSTEP 2.0',
    'SolidWorks 2018',
    '' );
FILE_SCHEMA (( 'CONFIG_CONTROL_DESIGN' ));
ENDSEC;

DATA;
#1 = APPROVAL_PERSON_ORGANIZATION ( #174, #53, #94 ) ;
#2 = LINE ( 'NONE', #24, #193 ) ;
#3 = APPLICATION_PROTOCOL_DEFINITION ( 'international standard', 'config_control_design', 1994, #188 ) ;
#4 = DATE_TIME_ROLE ( 'classification_date' ) ;
#5 = LINE ( 'NONE', #81, #151 ) ;
#6 = DIRECTION ( 'NONE',  ( 1.284980352575412946E-16, -1.000000000000000000, 0.0000000000000000000 ) ) ;
#7 = CC_DESIGN_PERSON_AND_ORGANIZATION_ASSIGNMENT ( #92, #166, ( #120 ) ) ;
#8 = VERTEX_POINT ( 'NONE', #154 ) ;
#9 = LOCAL_TIME ( 13, 53, 16.00000000000000000, #145 ) ;
#10 = VECTOR ( 'NONE', #152, 1000.000000000000000 ) ;
#11 = DIRECTION ( 'NONE',  ( -1.000000000000000000, -0.0000000000000000000, -0.0000000000000000000 ) ) ;
#12 = PLANE ( 'NONE',  #144 ) ;
#13 = VECTOR ( 'NONE', #25, 1000.000000000000000 ) ;
#14 = CARTESIAN_POINT ( 'NONE',  ( -10.00000000000000178, 13.49999999999999822, 0.5000000000000000000 ) ) ;
#15 = ORIENTED_EDGE ( 'NONE', *, *, #176, .F. ) ;
#16 = EDGE_CURVE ( 'NONE', #138, #168, #2, .T. ) ;
#17 = PERSON_AND_ORGANIZATION_ROLE ( 'classification_officer' ) ;
#18 = EDGE_CURVE ( 'NONE', #84, #8, #99, .T. ) ;
#19 = DATE_AND_TIME ( #95, #9 ) ;
#20 = ORIENTED_EDGE ( 'NONE', *, *, #18, .F. ) ;
#21 = CARTESIAN_POINT ( 'NONE',  ( 9.999999999999998224, 13.49999999999999822, -0.5000000000000000000 ) ) ;
#22 = CC_DESIGN_PERSON_AND_ORGANIZATION_ASSIGNMENT ( #44, #146, ( #186 ) ) ;
#23 = PERSON_AND_ORGANIZATION ( #169, #83 ) ;
#24 = CARTESIAN_POINT ( 'NONE',  ( -10.00000000000000178, 13.49999999999999822, 0.5000000000000000000 ) ) ;
#25 = DIRECTION ( 'NONE',  ( 1.000000000000000000, 0.0000000000000000000, 0.0000000000000000000 ) ) ;
#26 = DIRECTION ( 'NONE',  ( 0.0000000000000000000, -1.000000000000000000, 0.0000000000000000000 ) ) ;
#27 = CARTESIAN_POINT ( 'NONE',  ( -9.999999999999998224, -13.50000000000000178, -0.5000000000000000000 ) ) ;
#28 = PERSON_AND_ORGANIZATION ( #169, #83 ) ;
#29 = EDGE_LOOP ( 'NONE', ( #71, #159, #221, #217 ) ) ;
#30 = DIRECTION ( 'NONE',  ( 0.0000000000000000000, -0.0000000000000000000, -1.000000000000000000 ) ) ;
#31 = CC_DESIGN_SECURITY_CLASSIFICATION ( #58, ( #120 ) ) ;
#32 = LINE ( 'NONE', #230, #170 ) ;
#33 = EDGE_CURVE ( 'NONE', #168, #122, #47, .T. ) ;
#34 = DIRECTION ( 'NONE',  ( -1.000000000000000000, -1.284980352575412946E-16, 0.0000000000000000000 ) ) ;
#35 = APPROVAL_DATE_TIME ( #214, #91 ) ;
#36 = LOCAL_TIME ( 13, 53, 16.00000000000000000, #192 ) ;
#37 = VERTEX_POINT ( 'NONE', #85 ) ;
#38 = PERSON_AND_ORGANIZATION_ROLE ( 'creator' ) ;
#39 = APPROVAL_PERSON_ORGANIZATION ( #139, #224, #206 ) ;
#40 = PRODUCT_DEFINITION ( 'UNKNOWN', '', #120, #123 ) ;
#41 = ORIENTED_EDGE ( 'NONE', *, *, #33, .T. ) ;
#42 = LOCAL_TIME ( 13, 53, 16.00000000000000000, #77 ) ;
#43 = EDGE_CURVE ( 'NONE', #37, #8, #204, .T. ) ;
#44 = PERSON_AND_ORGANIZATION ( #169, #83 ) ;
#45 = PRODUCT_DEFINITION_SHAPE ( 'NONE', 'NONE',  #40 ) ;
#46 = COORDINATED_UNIVERSAL_TIME_OFFSET ( 5, 0, .BEHIND. ) ;
#47 = LINE ( 'NONE', #172, #141 ) ;
#48 = DIRECTION ( 'NONE',  ( 1.000000000000000000, 1.284980352575412946E-16, -0.0000000000000000000 ) ) ;
#49 = DIRECTION ( 'NONE',  ( -0.0000000000000000000, 0.0000000000000000000, 1.000000000000000000 ) ) ;
#50 = CARTESIAN_POINT ( 'NONE',  ( -9.999999999999998224, -13.50000000000000178, -0.5000000000000000000 ) ) ;
#51 = DIRECTION ( 'NONE',  ( -0.0000000000000000000, 0.0000000000000000000, 1.000000000000000000 ) ) ;
#52 = APPROVAL_DATE_TIME ( #167, #53 ) ;
#53 = APPROVAL ( #97, 'UNSPECIFIED' ) ;
#54 = FACE_OUTER_BOUND ( 'NONE', #165, .T. ) ;
#55 = LINE ( 'NONE', #50, #13 ) ;
#56 = VERTEX_POINT ( 'NONE', #235 ) ;
#57 = DIRECTION ( 'NONE',  ( 1.000000000000000000, 0.0000000000000000000, 0.0000000000000000000 ) ) ;
#58 = SECURITY_CLASSIFICATION ( '', '', #223 ) ;
#59 = FACE_OUTER_BOUND ( 'NONE', #65, .T. ) ;
#60 = PERSON_AND_ORGANIZATION ( #169, #83 ) ;
#61 = ORIENTED_EDGE ( 'NONE', *, *, #162, .F. ) ;
#62 = CARTESIAN_POINT ( 'NONE',  ( 9.999999999999998224, 13.49999999999999822, 0.5000000000000000000 ) ) ;
#63 = CARTESIAN_POINT ( 'NONE',  ( 9.999999999999998224, 13.49999999999999822, 0.5000000000000000000 ) ) ;
#64 = LOCAL_TIME ( 13, 53, 16.00000000000000000, #226 ) ;
#65 = EDGE_LOOP ( 'NONE', ( #113, #213, #196, #69 ) ) ;
#66 = DIRECTION ( 'NONE',  ( 1.284980352575412699E-16, -1.000000000000000000, 0.0000000000000000000 ) ) ;
#67 = AXIS2_PLACEMENT_3D ( 'NONE', #160, #51, #181 ) ;
#68 = DIRECTION ( 'NONE',  ( 1.000000000000000000, 0.0000000000000000000, 0.0000000000000000000 ) ) ;
#69 = ORIENTED_EDGE ( 'NONE', *, *, #197, .T. ) ;
#70 = ADVANCED_FACE ( 'NONE', ( #59 ), #125, .F. ) ;
#71 = ORIENTED_EDGE ( 'NONE', *, *, #162, .T. ) ;
#72 = AXIS2_PLACEMENT_3D ( 'NONE', #234, #157, #105 ) ;
#73 = PERSON_AND_ORGANIZATION ( #169, #83 ) ;
#74 = ORIENTED_EDGE ( 'NONE', *, *, #18, .T. ) ;
#75 = DIRECTION ( 'NONE',  ( 0.0000000000000000000, 0.0000000000000000000, 1.000000000000000000 ) ) ;
#76 = CC_DESIGN_PERSON_AND_ORGANIZATION_ASSIGNMENT ( #23, #17, ( #58 ) ) ;
#77 = COORDINATED_UNIVERSAL_TIME_OFFSET ( 5, 0, .BEHIND. ) ;
#78 = ORIENTED_EDGE ( 'NONE', *, *, #203, .T. ) ;
#79 = LINE ( 'NONE', #200, #184 ) ;
#80 = CC_DESIGN_DATE_AND_TIME_ASSIGNMENT ( #108, #4, ( #58 ) ) ;
#81 = CARTESIAN_POINT ( 'NONE',  ( -10.00000000000000178, 13.49999999999999822, 0.5000000000000000000 ) ) ;
#82 = CARTESIAN_POINT ( 'NONE',  ( -9.999999999999998224, -13.50000000000000178, 0.5000000000000000000 ) ) ;
#83 = ORGANIZATION ( 'UNSPECIFIED', 'UNSPECIFIED', '' ) ;
#84 = VERTEX_POINT ( 'NONE', #106 ) ;
#85 = CARTESIAN_POINT ( 'NONE',  ( 9.999999999999998224, 13.49999999999999822, 0.5000000000000000000 ) ) ;
#86 = PLANE ( 'NONE',  #232 ) ;
#87 = CALENDAR_DATE ( 2020, 31, 1 ) ;
#88 = ADVANCED_FACE ( 'NONE', ( #104 ), #86, .F. ) ;
#89 = CC_DESIGN_APPROVAL ( #53, ( #40 ) ) ;
#90 = ADVANCED_FACE ( 'NONE', ( #54 ), #198, .F. ) ;
#91 = APPROVAL ( #133, 'UNSPECIFIED' ) ;
#92 = PERSON_AND_ORGANIZATION ( #169, #83 ) ;
#93 = ORIENTED_EDGE ( 'NONE', *, *, #191, .F. ) ;
#94 = APPROVAL_ROLE ( '' ) ;
#95 = CALENDAR_DATE ( 2020, 31, 1 ) ;
#96 = ORIENTED_EDGE ( 'NONE', *, *, #109, .T. ) ;
#97 = APPROVAL_STATUS ( 'not_yet_approved' ) ;
#98 = APPROVAL_PERSON_ORGANIZATION ( #60, #91, #147 ) ;
#99 = LINE ( 'NONE', #21, #10 ) ;
#100 = LINE ( 'NONE', #219, #129 ) ;
#101 = CC_DESIGN_PERSON_AND_ORGANIZATION_ASSIGNMENT ( #28, #38, ( #40 ) ) ;
#102 = CALENDAR_DATE ( 2020, 31, 1 ) ;
#103 = CC_DESIGN_APPROVAL ( #91, ( #58 ) ) ;
#104 = FACE_OUTER_BOUND ( 'NONE', #202, .T. ) ;
#105 = DIRECTION ( 'NONE',  ( 0.0000000000000000000, -0.0000000000000000000, 1.000000000000000000 ) ) ;
#106 = CARTESIAN_POINT ( 'NONE',  ( 10.00000000000000178, -13.50000000000000178, -0.5000000000000000000 ) ) ;
#107 = CARTESIAN_POINT ( 'NONE',  ( 0.0000000000000000000, 0.0000000000000000000, -0.5000000000000000000 ) ) ;
#108 = DATE_AND_TIME ( #121, #36 ) ;
#109 = EDGE_CURVE ( 'NONE', #56, #37, #158, .T. ) ;
#110 = UNCERTAINTY_MEASURE_WITH_UNIT (LENGTH_MEASURE( 1.000000000000000082E-05 ), #190, 'distance_accuracy_value', 'NONE');
#111 = CARTESIAN_POINT ( 'NONE',  ( 0.0000000000000000000, 0.0000000000000000000, 0.0000000000000000000 ) ) ;
#112 = DATE_AND_TIME ( #87, #64 ) ;
#113 = ORIENTED_EDGE ( 'NONE', *, *, #191, .T. ) ;
#114 = APPLICATION_CONTEXT ( 'configuration controlled 3d designs of mechanical parts and assemblies' ) ;
#115 = CC_DESIGN_DATE_AND_TIME_ASSIGNMENT ( #19, #130, ( #40 ) ) ;
#116 = PRODUCT_RELATED_PRODUCT_CATEGORY ( 'detail', '', ( #186 ) ) ;
#117 = AXIS2_PLACEMENT_3D ( 'NONE', #107, #49, #68 ) ;
#118 = SHAPE_DEFINITION_REPRESENTATION ( #45, #189 ) ;
#119 = ORIENTED_EDGE ( 'NONE', *, *, #33, .F. ) ;
#120 = PRODUCT_DEFINITION_FORMATION_WITH_SPECIFIED_SOURCE ( 'ANY', '', #186, .NOT_KNOWN. ) ;
#121 = CALENDAR_DATE ( 2020, 31, 1 ) ;
#122 = VERTEX_POINT ( 'NONE', #27 ) ;
#123 = DESIGN_CONTEXT ( 'detailed design', #114, 'design' ) ;
#124 = CARTESIAN_POINT ( 'NONE',  ( -10.00000000000000178, 13.49999999999999822, 0.5000000000000000000 ) ) ;
#125 = PLANE ( 'NONE',  #72 ) ;
#126 = DIRECTION ( 'NONE',  ( -0.0000000000000000000, -0.0000000000000000000, -1.000000000000000000 ) ) ;
#127 = CALENDAR_DATE ( 2020, 31, 1 ) ;
#128 = CC_DESIGN_APPROVAL ( #224, ( #120 ) ) ;
#129 = VECTOR ( 'NONE', #140, 1000.000000000000000 ) ;
#130 = DATE_TIME_ROLE ( 'creation_date' ) ;
#131 = AXIS2_PLACEMENT_3D ( 'NONE', #124, #26, #30 ) ;
#132 = ORIENTED_EDGE ( 'NONE', *, *, #197, .F. ) ;
#133 = APPROVAL_STATUS ( 'not_yet_approved' ) ;
#134 = PERSON_AND_ORGANIZATION_ROLE ( 'creator' ) ;
#135 =( GEOMETRIC_REPRESENTATION_CONTEXT ( 3 ) GLOBAL_UNCERTAINTY_ASSIGNED_CONTEXT ( ( #110 ) ) GLOBAL_UNIT_ASSIGNED_CONTEXT ( ( #190, #207, #136 ) ) REPRESENTATION_CONTEXT ( 'NONE', 'WORKASPACE' ) );
#136 =( NAMED_UNIT ( * ) SI_UNIT ( $, .STERADIAN. ) SOLID_ANGLE_UNIT ( ) );
#137 = LINE ( 'NONE', #231, #187 ) ;
#138 = VERTEX_POINT ( 'NONE', #216 ) ;
#139 = PERSON_AND_ORGANIZATION ( #169, #83 ) ;
#140 = DIRECTION ( 'NONE',  ( -1.000000000000000000, -0.0000000000000000000, -0.0000000000000000000 ) ) ;
#141 = VECTOR ( 'NONE', #173, 1000.000000000000000 ) ;
#142 = DIRECTION ( 'NONE',  ( -0.0000000000000000000, -0.0000000000000000000, -1.000000000000000000 ) ) ;
#143 = DIRECTION ( 'NONE',  ( 1.000000000000000000, 0.0000000000000000000, 0.0000000000000000000 ) ) ;
#144 = AXIS2_PLACEMENT_3D ( 'NONE', #155, #34, #6 ) ;
#145 = COORDINATED_UNIVERSAL_TIME_OFFSET ( 5, 0, .BEHIND. ) ;
#146 = PERSON_AND_ORGANIZATION_ROLE ( 'design_owner' ) ;
#147 = APPROVAL_ROLE ( '' ) ;
#148 = EDGE_LOOP ( 'NONE', ( #74, #208, #222, #78 ) ) ;
#149 = VECTOR ( 'NONE', #195, 1000.000000000000000 ) ;
#150 = DIRECTION ( 'NONE',  ( -0.0000000000000000000, -0.0000000000000000000, -1.000000000000000000 ) ) ;
#151 = VECTOR ( 'NONE', #66, 1000.000000000000000 ) ;
#152 = DIRECTION ( 'NONE',  ( -1.284980352575412699E-16, 1.000000000000000000, -0.0000000000000000000 ) ) ;
#153 = ORIENTED_EDGE ( 'NONE', *, *, #16, .T. ) ;
#154 = CARTESIAN_POINT ( 'NONE',  ( 9.999999999999998224, 13.49999999999999822, -0.5000000000000000000 ) ) ;
#155 = CARTESIAN_POINT ( 'NONE',  ( 9.999999999999998224, 13.49999999999999822, 0.5000000000000000000 ) ) ;
#156 = PLANE ( 'NONE',  #131 ) ;
#157 = DIRECTION ( 'NONE',  ( 0.0000000000000000000, 1.000000000000000000, 0.0000000000000000000 ) ) ;
#158 = LINE ( 'NONE', #63, #179 ) ;
#159 = ORIENTED_EDGE ( 'NONE', *, *, #16, .F. ) ;
#160 = CARTESIAN_POINT ( 'NONE',  ( 0.0000000000000000000, 0.0000000000000000000, 0.5000000000000000000 ) ) ;
#161 = MANIFOLD_SOLID_BREP ( 'Boss-Extrude1', #229 ) ;
#162 = EDGE_CURVE ( 'NONE', #8, #168, #100, .T. ) ;
#163 = APPROVAL_STATUS ( 'not_yet_approved' ) ;
#164 = FACE_OUTER_BOUND ( 'NONE', #175, .T. ) ;
#165 = EDGE_LOOP ( 'NONE', ( #20, #93, #119, #61 ) ) ;
#166 = PERSON_AND_ORGANIZATION_ROLE ( 'design_supplier' ) ;
#167 = DATE_AND_TIME ( #127, #42 ) ;
#168 = VERTEX_POINT ( 'NONE', #218 ) ;
#169 = PERSON ( 'UNSPECIFIED', 'UNSPECIFIED', 'UNSPECIFIED', ('UNSPECIFIED'), ('UNSPECIFIED'), ('UNSPECIFIED') ) ;
#170 = VECTOR ( 'NONE', #126, 1000.000000000000000 ) ;
#171 = ORIENTED_EDGE ( 'NONE', *, *, #176, .T. ) ;
#172 = CARTESIAN_POINT ( 'NONE',  ( -10.00000000000000178, 13.49999999999999822, -0.5000000000000000000 ) ) ;
#173 = DIRECTION ( 'NONE',  ( 1.284980352575412699E-16, -1.000000000000000000, 0.0000000000000000000 ) ) ;
#174 = PERSON_AND_ORGANIZATION ( #169, #83 ) ;
#175 = EDGE_LOOP ( 'NONE', ( #96, #210, #171, #227 ) ) ;
#176 = EDGE_CURVE ( 'NONE', #138, #180, #5, .T. ) ;
#177 = DIRECTION ( 'NONE',  ( -1.284980352575412699E-16, 1.000000000000000000, -0.0000000000000000000 ) ) ;
#178 = PLANE ( 'NONE',  #67 ) ;
#179 = VECTOR ( 'NONE', #177, 1000.000000000000000 ) ;
#180 = VERTEX_POINT ( 'NONE', #82 ) ;
#181 = DIRECTION ( 'NONE',  ( 1.000000000000000000, 0.0000000000000000000, 0.0000000000000000000 ) ) ;
#182 = CARTESIAN_POINT ( 'NONE',  ( 10.00000000000000178, -13.50000000000000178, 0.5000000000000000000 ) ) ;
#183 = ADVANCED_FACE ( 'NONE', ( #194 ), #156, .F. ) ;
#184 = VECTOR ( 'NONE', #143, 1000.000000000000000 ) ;
#185 = APPLICATION_PROTOCOL_DEFINITION ( 'international standard', 'config_control_design', 1994, #114 ) ;
#186 = PRODUCT ( 'Web Model 32269_46695', 'Web Model 32269_46695', '', ( #209 ) ) ;
#187 = VECTOR ( 'NONE', #11, 1000.000000000000000 ) ;
#188 = APPLICATION_CONTEXT ( 'configuration controlled 3d designs of mechanical parts and assemblies' ) ;
#189 = ADVANCED_BREP_SHAPE_REPRESENTATION ( 'Web Model 32269_46695', ( #161, #228 ), #135 ) ;
#190 =( LENGTH_UNIT ( ) NAMED_UNIT ( * ) SI_UNIT ( .MILLI., .METRE. ) );
#191 = EDGE_CURVE ( 'NONE', #122, #84, #55, .T. ) ;
#192 = COORDINATED_UNIVERSAL_TIME_OFFSET ( 5, 0, .BEHIND. ) ;
#193 = VECTOR ( 'NONE', #150, 1000.000000000000000 ) ;
#194 = FACE_OUTER_BOUND ( 'NONE', #29, .T. ) ;
#195 = DIRECTION ( 'NONE',  ( -0.0000000000000000000, -0.0000000000000000000, -1.000000000000000000 ) ) ;
#196 = ORIENTED_EDGE ( 'NONE', *, *, #211, .F. ) ;
#197 = EDGE_CURVE ( 'NONE', #180, #122, #32, .T. ) ;
#198 = PLANE ( 'NONE',  #117 ) ;
#199 = DIRECTION ( 'NONE',  ( -1.284980352575412946E-16, 1.000000000000000000, 0.0000000000000000000 ) ) ;
#200 = CARTESIAN_POINT ( 'NONE',  ( -9.999999999999998224, -13.50000000000000178, 0.5000000000000000000 ) ) ;
#201 = FACE_OUTER_BOUND ( 'NONE', #148, .T. ) ;
#202 = EDGE_LOOP ( 'NONE', ( #41, #132, #15, #153 ) ) ;
#203 = EDGE_CURVE ( 'NONE', #56, #84, #236, .T. ) ;
#204 = LINE ( 'NONE', #62, #149 ) ;
#205 = CC_DESIGN_PERSON_AND_ORGANIZATION_ASSIGNMENT ( #73, #134, ( #120 ) ) ;
#206 = APPROVAL_ROLE ( '' ) ;
#207 =( NAMED_UNIT ( * ) PLANE_ANGLE_UNIT ( ) SI_UNIT ( $, .RADIAN. ) );
#208 = ORIENTED_EDGE ( 'NONE', *, *, #43, .F. ) ;
#209 = MECHANICAL_CONTEXT ( 'NONE', #188, 'mechanical' ) ;
#210 = ORIENTED_EDGE ( 'NONE', *, *, #220, .T. ) ;
#211 = EDGE_CURVE ( 'NONE', #180, #56, #79, .T. ) ;
#212 = VECTOR ( 'NONE', #142, 1000.000000000000000 ) ;
#213 = ORIENTED_EDGE ( 'NONE', *, *, #203, .F. ) ;
#214 = DATE_AND_TIME ( #102, #233 ) ;
#215 = ADVANCED_FACE ( 'NONE', ( #164 ), #178, .T. ) ;
#216 = CARTESIAN_POINT ( 'NONE',  ( -10.00000000000000178, 13.49999999999999822, 0.5000000000000000000 ) ) ;
#217 = ORIENTED_EDGE ( 'NONE', *, *, #43, .T. ) ;
#218 = CARTESIAN_POINT ( 'NONE',  ( -10.00000000000000178, 13.49999999999999822, -0.5000000000000000000 ) ) ;
#219 = CARTESIAN_POINT ( 'NONE',  ( -10.00000000000000178, 13.49999999999999822, -0.5000000000000000000 ) ) ;
#220 = EDGE_CURVE ( 'NONE', #37, #138, #137, .T. ) ;
#221 = ORIENTED_EDGE ( 'NONE', *, *, #220, .F. ) ;
#222 = ORIENTED_EDGE ( 'NONE', *, *, #109, .F. ) ;
#223 = SECURITY_CLASSIFICATION_LEVEL ( 'unclassified' ) ;
#224 = APPROVAL ( #163, 'UNSPECIFIED' ) ;
#225 = APPROVAL_DATE_TIME ( #112, #224 ) ;
#226 = COORDINATED_UNIVERSAL_TIME_OFFSET ( 5, 0, .BEHIND. ) ;
#227 = ORIENTED_EDGE ( 'NONE', *, *, #211, .T. ) ;
#228 = AXIS2_PLACEMENT_3D ( 'NONE', #111, #75, #57 ) ;
#229 = CLOSED_SHELL ( 'NONE', ( #237, #183, #88, #70, #215, #90 ) ) ;
#230 = CARTESIAN_POINT ( 'NONE',  ( -9.999999999999998224, -13.50000000000000178, 0.5000000000000000000 ) ) ;
#231 = CARTESIAN_POINT ( 'NONE',  ( -10.00000000000000178, 13.49999999999999822, 0.5000000000000000000 ) ) ;
#232 = AXIS2_PLACEMENT_3D ( 'NONE', #14, #48, #199 ) ;
#233 = LOCAL_TIME ( 13, 53, 16.00000000000000000, #46 ) ;
#234 = CARTESIAN_POINT ( 'NONE',  ( -9.999999999999998224, -13.50000000000000178, 0.5000000000000000000 ) ) ;
#235 = CARTESIAN_POINT ( 'NONE',  ( 10.00000000000000178, -13.50000000000000178, 0.5000000000000000000 ) ) ;
#236 = LINE ( 'NONE', #182, #212 ) ;
#237 = ADVANCED_FACE ( 'NONE', ( #201 ), #12, .F. ) ;
ENDSEC;
END-ISO-10303-21;
