ISO-10303-21;
HEADER;
FILE_DESCRIPTION (( 'STEP AP203' ),
    '1' );
FILE_NAME ('Web Model 63207_14828.step',
    '2020-10-07T17:34:39',
    ( '' ),
    ( '' ),
    'SwSTEP 2.0',
    'SolidWorks 2018',
    '' );
FILE_SCHEMA (( 'CONFIG_CONTROL_DESIGN' ));
ENDSEC;

DATA;
#1 = COORDINATED_UNIVERSAL_TIME_OFFSET ( 5, 0, .BEHIND. ) ;
#2 = AXIS2_PLACEMENT_3D ( 'NONE', #99, #139, #101 ) ;
#3 = PERSON_AND_ORGANIZATION ( #67, #78 ) ;
#4 = ORIENTED_EDGE ( 'NONE', *, *, #84, .T. ) ;
#5 = CARTESIAN_POINT ( 'NONE',  ( 0.0000000000000000000, 0.0000000000000000000, 0.0000000000000000000 ) ) ;
#6 = APPROVAL ( #169, 'UNSPECIFIED' ) ;
#7 = DIRECTION ( 'NONE',  ( -0.0000000000000000000, -0.0000000000000000000, -1.000000000000000000 ) ) ;
#8 = CALENDAR_DATE ( 2020, 7, 10 ) ;
#9 = CC_DESIGN_PERSON_AND_ORGANIZATION_ASSIGNMENT ( #65, #55, ( #24 ) ) ;
#10 = FACE_OUTER_BOUND ( 'NONE', #105, .T. ) ;
#11 = APPROVAL_ROLE ( '' ) ;
#12 = LOCAL_TIME ( 13, 34, 39.00000000000000000, #69 ) ;
#13 = CC_DESIGN_APPROVAL ( #6, ( #116 ) ) ;
#14 = ADVANCED_FACE ( 'NONE', ( #39 ), #94, .F. ) ;
#15 = CALENDAR_DATE ( 2020, 7, 10 ) ;
#16 = CC_DESIGN_APPROVAL ( #136, ( #24 ) ) ;
#17 = APPROVAL_PERSON_ORGANIZATION ( #149, #144, #11 ) ;
#18 = EDGE_LOOP ( 'NONE', ( #81, #46, #153, #35 ) ) ;
#19 = CC_DESIGN_SECURITY_CLASSIFICATION ( #52, ( #24 ) ) ;
#20 = CARTESIAN_POINT ( 'NONE',  ( 0.0000000000000000000, 0.0000000000000000000, 2.000000000000000000 ) ) ;
#21 = CARTESIAN_POINT ( 'NONE',  ( 0.0000000000000000000, 0.0000000000000000000, 2.000000000000000000 ) ) ;
#22 = DIRECTION ( 'NONE',  ( -1.000000000000000000, 0.0000000000000000000, 0.0000000000000000000 ) ) ;
#23 = DIRECTION ( 'NONE',  ( 0.0000000000000000000, 0.0000000000000000000, 1.000000000000000000 ) ) ;
#24 = PRODUCT_DEFINITION_FORMATION_WITH_SPECIFIED_SOURCE ( 'ANY', '', #157, .NOT_KNOWN. ) ;
#25 = VERTEX_POINT ( 'NONE', #33 ) ;
#26 = ORIENTED_EDGE ( 'NONE', *, *, #30, .F. ) ;
#27 = ADVANCED_FACE ( 'NONE', ( #170 ), #173, .T. ) ;
#28 = CIRCLE ( 'NONE', #167, 10.00000000000000000 ) ;
#29 = LINE ( 'NONE', #137, #146 ) ;
#30 = EDGE_CURVE ( 'NONE', #125, #70, #135, .T. ) ;
#31 = CARTESIAN_POINT ( 'NONE',  ( 10.00000000000000000, 1.224646799147353256E-15, 2.000000000000000000 ) ) ;
#32 = DIRECTION ( 'NONE',  ( 1.000000000000000000, 0.0000000000000000000, 0.0000000000000000000 ) ) ;
#33 = CARTESIAN_POINT ( 'NONE',  ( -10.00000000000000000, 0.0000000000000000000, 2.000000000000000000 ) ) ;
#34 = APPLICATION_CONTEXT ( 'configuration controlled 3d designs of mechanical parts and assemblies' ) ;
#35 = ORIENTED_EDGE ( 'NONE', *, *, #30, .T. ) ;
#36 = DIRECTION ( 'NONE',  ( 1.000000000000000000, 0.0000000000000000000, -0.0000000000000000000 ) ) ;
#37 = DATE_TIME_ROLE ( 'creation_date' ) ;
#38 = APPROVAL_STATUS ( 'not_yet_approved' ) ;
#39 = FACE_OUTER_BOUND ( 'NONE', #168, .T. ) ;
#40 = APPROVAL_ROLE ( '' ) ;
#41 = ADVANCED_FACE ( 'NONE', ( #102 ), #138, .T. ) ;
#42 = CC_DESIGN_PERSON_AND_ORGANIZATION_ASSIGNMENT ( #131, #128, ( #24 ) ) ;
#43 = APPROVAL_DATE_TIME ( #95, #144 ) ;
#44 = CARTESIAN_POINT ( 'NONE',  ( 0.0000000000000000000, 0.0000000000000000000, 0.0000000000000000000 ) ) ;
#45 = COORDINATED_UNIVERSAL_TIME_OFFSET ( 5, 0, .BEHIND. ) ;
#46 = ORIENTED_EDGE ( 'NONE', *, *, #93, .F. ) ;
#47 = CARTESIAN_POINT ( 'NONE',  ( 0.0000000000000000000, 0.0000000000000000000, 2.000000000000000000 ) ) ;
#48 =( NAMED_UNIT ( * ) PLANE_ANGLE_UNIT ( ) SI_UNIT ( $, .RADIAN. ) );
#49 = CARTESIAN_POINT ( 'NONE',  ( 0.0000000000000000000, 0.0000000000000000000, 2.000000000000000000 ) ) ;
#50 = DATE_AND_TIME ( #56, #108 ) ;
#51 = APPLICATION_CONTEXT ( 'configuration controlled 3d designs of mechanical parts and assemblies' ) ;
#52 = SECURITY_CLASSIFICATION ( '', '', #89 ) ;
#53 = APPROVAL_ROLE ( '' ) ;
#54 = LOCAL_TIME ( 13, 34, 39.00000000000000000, #75 ) ;
#55 = PERSON_AND_ORGANIZATION_ROLE ( 'design_supplier' ) ;
#56 = CALENDAR_DATE ( 2020, 7, 10 ) ;
#57 = ORIENTED_EDGE ( 'NONE', *, *, #107, .T. ) ;
#58 = PERSON_AND_ORGANIZATION ( #67, #78 ) ;
#59 = CC_DESIGN_PERSON_AND_ORGANIZATION_ASSIGNMENT ( #111, #63, ( #52 ) ) ;
#60 =( NAMED_UNIT ( * ) SI_UNIT ( $, .STERADIAN. ) SOLID_ANGLE_UNIT ( ) );
#61 = APPLICATION_PROTOCOL_DEFINITION ( 'international standard', 'config_control_design', 1994, #34 ) ;
#62 = APPLICATION_PROTOCOL_DEFINITION ( 'international standard', 'config_control_design', 1994, #51 ) ;
#63 = PERSON_AND_ORGANIZATION_ROLE ( 'classification_officer' ) ;
#64 = ORIENTED_EDGE ( 'NONE', *, *, #130, .F. ) ;
#65 = PERSON_AND_ORGANIZATION ( #67, #78 ) ;
#66 = CC_DESIGN_DATE_AND_TIME_ASSIGNMENT ( #77, #143, ( #52 ) ) ;
#67 = PERSON ( 'UNSPECIFIED', 'UNSPECIFIED', 'UNSPECIFIED', ('UNSPECIFIED'), ('UNSPECIFIED'), ('UNSPECIFIED') ) ;
#68 = ORIENTED_EDGE ( 'NONE', *, *, #154, .T. ) ;
#69 = COORDINATED_UNIVERSAL_TIME_OFFSET ( 5, 0, .BEHIND. ) ;
#70 = VERTEX_POINT ( 'NONE', #152 ) ;
#71 = MECHANICAL_CONTEXT ( 'NONE', #34, 'mechanical' ) ;
#72 = PERSON_AND_ORGANIZATION ( #67, #78 ) ;
#73 = DIRECTION ( 'NONE',  ( -0.0000000000000000000, -0.0000000000000000000, -1.000000000000000000 ) ) ;
#74 = CC_DESIGN_APPROVAL ( #144, ( #52 ) ) ;
#75 = COORDINATED_UNIVERSAL_TIME_OFFSET ( 5, 0, .BEHIND. ) ;
#76 = CIRCLE ( 'NONE', #175, 10.00000000000000000 ) ;
#77 = DATE_AND_TIME ( #15, #54 ) ;
#78 = ORGANIZATION ( 'UNSPECIFIED', 'UNSPECIFIED', '' ) ;
#79 = ORIENTED_EDGE ( 'NONE', *, *, #93, .T. ) ;
#80 = PRODUCT_RELATED_PRODUCT_CATEGORY ( 'detail', '', ( #157 ) ) ;
#81 = ORIENTED_EDGE ( 'NONE', *, *, #154, .F. ) ;
#82 = DIRECTION ( 'NONE',  ( 0.0000000000000000000, 0.0000000000000000000, 1.000000000000000000 ) ) ;
#83 = DIRECTION ( 'NONE',  ( 0.0000000000000000000, 0.0000000000000000000, 1.000000000000000000 ) ) ;
#84 = EDGE_CURVE ( 'NONE', #150, #25, #133, .T. ) ;
#85 = CARTESIAN_POINT ( 'NONE',  ( 10.00000000000000000, 1.224646799147353256E-15, 2.000000000000000000 ) ) ;
#86 = CYLINDRICAL_SURFACE ( 'NONE', #156, 10.00000000000000000 ) ;
#87 = DIRECTION ( 'NONE',  ( 0.0000000000000000000, 0.0000000000000000000, 1.000000000000000000 ) ) ;
#88 =( LENGTH_UNIT ( ) NAMED_UNIT ( * ) SI_UNIT ( .MILLI., .METRE. ) );
#89 = SECURITY_CLASSIFICATION_LEVEL ( 'unclassified' ) ;
#90 = CC_DESIGN_DATE_AND_TIME_ASSIGNMENT ( #50, #37, ( #116 ) ) ;
#91 = APPROVAL_STATUS ( 'not_yet_approved' ) ;
#92 = COORDINATED_UNIVERSAL_TIME_OFFSET ( 5, 0, .BEHIND. ) ;
#93 = EDGE_CURVE ( 'NONE', #25, #150, #76, .T. ) ;
#94 = PLANE ( 'NONE',  #140 ) ;
#95 = DATE_AND_TIME ( #114, #142 ) ;
#96 = DIRECTION ( 'NONE',  ( 0.0000000000000000000, 0.0000000000000000000, 1.000000000000000000 ) ) ;
#97 = UNCERTAINTY_MEASURE_WITH_UNIT (LENGTH_MEASURE( 1.000000000000000082E-05 ), #88, 'distance_accuracy_value', 'NONE');
#98 = AXIS2_PLACEMENT_3D ( 'NONE', #20, #87, #36 ) ;
#99 = CARTESIAN_POINT ( 'NONE',  ( 0.0000000000000000000, 0.0000000000000000000, 0.0000000000000000000 ) ) ;
#100 = CARTESIAN_POINT ( 'NONE',  ( 0.0000000000000000000, 0.0000000000000000000, 0.0000000000000000000 ) ) ;
#101 = DIRECTION ( 'NONE',  ( 1.000000000000000000, 0.0000000000000000000, 0.0000000000000000000 ) ) ;
#102 = FACE_OUTER_BOUND ( 'NONE', #158, .T. ) ;
#103 = AXIS2_PLACEMENT_3D ( 'NONE', #100, #83, #32 ) ;
#104 = PERSON_AND_ORGANIZATION_ROLE ( 'creator' ) ;
#105 = EDGE_LOOP ( 'NONE', ( #141, #68, #57, #64 ) ) ;
#106 = CC_DESIGN_PERSON_AND_ORGANIZATION_ASSIGNMENT ( #3, #126, ( #157 ) ) ;
#107 = EDGE_CURVE ( 'NONE', #70, #125, #28, .T. ) ;
#108 = LOCAL_TIME ( 13, 34, 39.00000000000000000, #92 ) ;
#109 = DIRECTION ( 'NONE',  ( 1.000000000000000000, 0.0000000000000000000, -0.0000000000000000000 ) ) ;
#110 = DIRECTION ( 'NONE',  ( 1.000000000000000000, 0.0000000000000000000, 0.0000000000000000000 ) ) ;
#111 = PERSON_AND_ORGANIZATION ( #67, #78 ) ;
#112 = DIRECTION ( 'NONE',  ( -1.000000000000000000, 0.0000000000000000000, 0.0000000000000000000 ) ) ;
#113 = DIRECTION ( 'NONE',  ( -0.0000000000000000000, -0.0000000000000000000, -1.000000000000000000 ) ) ;
#114 = CALENDAR_DATE ( 2020, 7, 10 ) ;
#115 = ORIENTED_EDGE ( 'NONE', *, *, #107, .F. ) ;
#116 = PRODUCT_DEFINITION ( 'UNKNOWN', '', #24, #171 ) ;
#117 = DATE_AND_TIME ( #120, #12 ) ;
#118 = CC_DESIGN_PERSON_AND_ORGANIZATION_ASSIGNMENT ( #72, #104, ( #116 ) ) ;
#119 = CLOSED_SHELL ( 'NONE', ( #174, #27, #41, #14 ) ) ;
#120 = CALENDAR_DATE ( 2020, 7, 10 ) ;
#121 = AXIS2_PLACEMENT_3D ( 'NONE', #166, #123, #22 ) ;
#122 = APPROVAL_PERSON_ORGANIZATION ( #172, #6, #40 ) ;
#123 = DIRECTION ( 'NONE',  ( -0.0000000000000000000, -0.0000000000000000000, -1.000000000000000000 ) ) ;
#124 = CARTESIAN_POINT ( 'NONE',  ( -10.00000000000000000, 0.0000000000000000000, 0.0000000000000000000 ) ) ;
#125 = VERTEX_POINT ( 'NONE', #124 ) ;
#126 = PERSON_AND_ORGANIZATION_ROLE ( 'design_owner' ) ;
#127 = DIRECTION ( 'NONE',  ( 1.000000000000000000, 0.0000000000000000000, 0.0000000000000000000 ) ) ;
#128 = PERSON_AND_ORGANIZATION_ROLE ( 'creator' ) ;
#129 = LINE ( 'NONE', #31, #132 ) ;
#130 = EDGE_CURVE ( 'NONE', #25, #125, #29, .T. ) ;
#131 = PERSON_AND_ORGANIZATION ( #67, #78 ) ;
#132 = VECTOR ( 'NONE', #73, 1000.000000000000000 ) ;
#133 = CIRCLE ( 'NONE', #147, 10.00000000000000000 ) ;
#134 = APPROVAL_PERSON_ORGANIZATION ( #58, #136, #53 ) ;
#135 = CIRCLE ( 'NONE', #103, 10.00000000000000000 ) ;
#136 = APPROVAL ( #38, 'UNSPECIFIED' ) ;
#137 = CARTESIAN_POINT ( 'NONE',  ( -10.00000000000000000, 0.0000000000000000000, 2.000000000000000000 ) ) ;
#138 = PLANE ( 'NONE',  #98 ) ;
#139 = DIRECTION ( 'NONE',  ( 0.0000000000000000000, 0.0000000000000000000, 1.000000000000000000 ) ) ;
#140 = AXIS2_PLACEMENT_3D ( 'NONE', #44, #96, #109 ) ;
#141 = ORIENTED_EDGE ( 'NONE', *, *, #84, .F. ) ;
#142 = LOCAL_TIME ( 13, 34, 39.00000000000000000, #1 ) ;
#143 = DATE_TIME_ROLE ( 'classification_date' ) ;
#144 = APPROVAL ( #91, 'UNSPECIFIED' ) ;
#145 = APPROVAL_DATE_TIME ( #155, #6 ) ;
#146 = VECTOR ( 'NONE', #7, 1000.000000000000000 ) ;
#147 = AXIS2_PLACEMENT_3D ( 'NONE', #47, #82, #127 ) ;
#148 = APPROVAL_DATE_TIME ( #117, #136 ) ;
#149 = PERSON_AND_ORGANIZATION ( #67, #78 ) ;
#150 = VERTEX_POINT ( 'NONE', #85 ) ;
#151 = LOCAL_TIME ( 13, 34, 39.00000000000000000, #45 ) ;
#152 = CARTESIAN_POINT ( 'NONE',  ( 10.00000000000000000, 1.224646799147353256E-15, 0.0000000000000000000 ) ) ;
#153 = ORIENTED_EDGE ( 'NONE', *, *, #130, .T. ) ;
#154 = EDGE_CURVE ( 'NONE', #150, #70, #129, .T. ) ;
#155 = DATE_AND_TIME ( #8, #151 ) ;
#156 = AXIS2_PLACEMENT_3D ( 'NONE', #49, #113, #112 ) ;
#157 = PRODUCT ( 'Web Model 63207_14828', 'Web Model 63207_14828', '', ( #71 ) ) ;
#158 = EDGE_LOOP ( 'NONE', ( #79, #4 ) ) ;
#159 = MANIFOLD_SOLID_BREP ( 'Extrude1', #119 ) ;
#160 = ADVANCED_BREP_SHAPE_REPRESENTATION ( 'Web Model 63207_14828', ( #159, #2 ), #165 ) ;
#161 = DIRECTION ( 'NONE',  ( 0.0000000000000000000, 0.0000000000000000000, 1.000000000000000000 ) ) ;
#162 = SHAPE_DEFINITION_REPRESENTATION ( #163, #160 ) ;
#163 = PRODUCT_DEFINITION_SHAPE ( 'NONE', 'NONE',  #116 ) ;
#164 = DIRECTION ( 'NONE',  ( 1.000000000000000000, 0.0000000000000000000, 0.0000000000000000000 ) ) ;
#165 =( GEOMETRIC_REPRESENTATION_CONTEXT ( 3 ) GLOBAL_UNCERTAINTY_ASSIGNED_CONTEXT ( ( #97 ) ) GLOBAL_UNIT_ASSIGNED_CONTEXT ( ( #88, #48, #60 ) ) REPRESENTATION_CONTEXT ( 'NONE', 'WORKASPACE' ) );
#166 = CARTESIAN_POINT ( 'NONE',  ( 0.0000000000000000000, 0.0000000000000000000, 2.000000000000000000 ) ) ;
#167 = AXIS2_PLACEMENT_3D ( 'NONE', #5, #161, #110 ) ;
#168 = EDGE_LOOP ( 'NONE', ( #26, #115 ) ) ;
#169 = APPROVAL_STATUS ( 'not_yet_approved' ) ;
#170 = FACE_OUTER_BOUND ( 'NONE', #18, .T. ) ;
#171 = DESIGN_CONTEXT ( 'detailed design', #51, 'design' ) ;
#172 = PERSON_AND_ORGANIZATION ( #67, #78 ) ;
#173 = CYLINDRICAL_SURFACE ( 'NONE', #121, 10.00000000000000000 ) ;
#174 = ADVANCED_FACE ( 'NONE', ( #10 ), #86, .T. ) ;
#175 = AXIS2_PLACEMENT_3D ( 'NONE', #21, #23, #164 ) ;
ENDSEC;
END-ISO-10303-21;
