ISO-10303-21;
HEADER;
FILE_DESCRIPTION (( 'STEP AP203' ),
    '1' );
FILE_NAME ('Web Model 43214_48469.step',
    '2018-03-12T19:15:48',
    ( '' ),
    ( '' ),
    'SwSTEP 2.0',
    'SolidWorks 2016',
    '' );
FILE_SCHEMA (( 'CONFIG_CONTROL_DESIGN' ));
ENDSEC;

DATA;
#1 = CARTESIAN_POINT ( 'NONE',  ( 4.750000000000000000, 24.99999999999997900, 25.00000000000000000 ) ) ;
#2 = PLANE ( 'NONE',  #227 ) ;
#3 = DATE_AND_TIME ( #59, #110 ) ;
#4 = PERSON_AND_ORGANIZATION_ROLE ( 'creator' ) ;
#5 = DIRECTION ( 'NONE',  ( 1.000000000000000000, 0.0000000000000000000, 0.0000000000000000000 ) ) ;
#6 = VECTOR ( 'NONE', #215, 1000.000000000000000 ) ;
#7 = AXIS2_PLACEMENT_3D ( 'NONE', #79, #82, #132 ) ;
#8 = ORIENTED_EDGE ( 'NONE', *, *, #42, .F. ) ;
#9 = ORIENTED_EDGE ( 'NONE', *, *, #26, .F. ) ;
#10 = FACE_OUTER_BOUND ( 'NONE', #197, .T. ) ;
#11 = COORDINATED_UNIVERSAL_TIME_OFFSET ( 5, 0, .BEHIND. ) ;
#12 = FACE_OUTER_BOUND ( 'NONE', #100, .T. ) ;
#13 = VERTEX_POINT ( 'NONE', #212 ) ;
#14 = SECURITY_CLASSIFICATION ( '', '', #182 ) ;
#15 = CARTESIAN_POINT ( 'NONE',  ( 4.750000000000000000, -25.00000000000001100, 25.00000000000000000 ) ) ;
#16 = DATE_AND_TIME ( #60, #140 ) ;
#17 = CARTESIAN_POINT ( 'NONE',  ( 4.750000000000000000, -25.00000000000001100, -25.00000000000000000 ) ) ;
#18 = DIRECTION ( 'NONE',  ( -1.000000000000000000, -0.0000000000000000000, -0.0000000000000000000 ) ) ;
#19 = CARTESIAN_POINT ( 'NONE',  ( -4.750000000000000000, 0.0000000000000000000, 0.0000000000000000000 ) ) ;
#20 = DIRECTION ( 'NONE',  ( 0.0000000000000000000, 0.0000000000000000000, -1.000000000000000000 ) ) ;
#21 = DIRECTION ( 'NONE',  ( -1.000000000000000000, -0.0000000000000000000, -0.0000000000000000000 ) ) ;
#22 = DATE_AND_TIME ( #158, #93 ) ;
#23 = VECTOR ( 'NONE', #20, 1000.000000000000000 ) ;
#24 = APPROVAL_PERSON_ORGANIZATION ( #126, #152, #87 ) ;
#25 = ORIENTED_EDGE ( 'NONE', *, *, #203, .T. ) ;
#26 = EDGE_CURVE ( 'NONE', #88, #13, #64, .T. ) ;
#27 = AXIS2_PLACEMENT_3D ( 'NONE', #53, #181, #165 ) ;
#28 = FACE_OUTER_BOUND ( 'NONE', #44, .T. ) ;
#29 = ORIENTED_EDGE ( 'NONE', *, *, #26, .T. ) ;
#30 = DIRECTION ( 'NONE',  ( 0.0000000000000000000, -1.000000000000000000, 0.0000000000000000000 ) ) ;
#31 = PLANE ( 'NONE',  #55 ) ;
#32 = ORIENTED_EDGE ( 'NONE', *, *, #72, .T. ) ;
#33 = CARTESIAN_POINT ( 'NONE',  ( -4.750000000000000000, -25.00000000000001100, -25.00000000000000000 ) ) ;
#34 = DIRECTION ( 'NONE',  ( -0.0000000000000000000, -2.775557561562891400E-016, 1.000000000000000000 ) ) ;
#35 = ORGANIZATION ( 'UNSPECIFIED', 'UNSPECIFIED', '' ) ;
#36 = APPROVAL_STATUS ( 'not_yet_approved' ) ;
#37 = CARTESIAN_POINT ( 'NONE',  ( 4.750000000000000000, 24.99999999999998900, -25.00000000000000000 ) ) ;
#38 =( LENGTH_UNIT ( ) NAMED_UNIT ( * ) SI_UNIT ( .MILLI., .METRE. ) );
#39 = LOCAL_TIME ( 15, 15, 48.00000000000000000, #11 ) ;
#40 = CC_DESIGN_PERSON_AND_ORGANIZATION_ASSIGNMENT ( #125, #179, ( #167 ) ) ;
#41 = ADVANCED_FACE ( 'NONE', ( #123 ), #31, .F. ) ;
#42 = EDGE_CURVE ( 'NONE', #127, #130, #235, .T. ) ;
#43 = LINE ( 'NONE', #96, #83 ) ;
#44 = EDGE_LOOP ( 'NONE', ( #119, #9, #67, #236 ) ) ;
#45 = CALENDAR_DATE ( 2018, 12, 3 ) ;
#46 = PLANE ( 'NONE',  #7 ) ;
#47 = CC_DESIGN_SECURITY_CLASSIFICATION ( #14, ( #167 ) ) ;
#48 = MECHANICAL_CONTEXT ( 'NONE', #102, 'mechanical' ) ;
#49 = COORDINATED_UNIVERSAL_TIME_OFFSET ( 5, 0, .BEHIND. ) ;
#50 = APPROVAL_ROLE ( '' ) ;
#51 = DATE_AND_TIME ( #106, #228 ) ;
#52 = DIRECTION ( 'NONE',  ( -0.0000000000000000000, 1.000000000000000000, -0.0000000000000000000 ) ) ;
#53 = CARTESIAN_POINT ( 'NONE',  ( 0.0000000000000000000, 0.0000000000000000000, 0.0000000000000000000 ) ) ;
#54 = PLANE ( 'NONE',  #115 ) ;
#55 = AXIS2_PLACEMENT_3D ( 'NONE', #68, #66, #84 ) ;
#56 = VERTEX_POINT ( 'NONE', #17 ) ;
#57 = LINE ( 'NONE', #234, #206 ) ;
#58 = MANIFOLD_SOLID_BREP ( 'Boss-Extrude1', #111 ) ;
#59 = CALENDAR_DATE ( 2018, 12, 3 ) ;
#60 = CALENDAR_DATE ( 2018, 12, 3 ) ;
#61 = CC_DESIGN_PERSON_AND_ORGANIZATION_ASSIGNMENT ( #223, #177, ( #229 ) ) ;
#62 = VERTEX_POINT ( 'NONE', #133 ) ;
#63 = VECTOR ( 'NONE', #52, 1000.000000000000000 ) ;
#64 = LINE ( 'NONE', #160, #189 ) ;
#65 =( GEOMETRIC_REPRESENTATION_CONTEXT ( 3 ) GLOBAL_UNCERTAINTY_ASSIGNED_CONTEXT ( ( #71 ) ) GLOBAL_UNIT_ASSIGNED_CONTEXT ( ( #38, #117, #195 ) ) REPRESENTATION_CONTEXT ( 'NONE', 'WORKASPACE' ) );
#66 = DIRECTION ( 'NONE',  ( 0.0000000000000000000, 0.0000000000000000000, -1.000000000000000000 ) ) ;
#67 = ORIENTED_EDGE ( 'NONE', *, *, #204, .F. ) ;
#68 = CARTESIAN_POINT ( 'NONE',  ( 4.750000000000000000, 24.99999999999997900, 25.00000000000000000 ) ) ;
#69 = APPLICATION_PROTOCOL_DEFINITION ( 'international standard', 'config_control_design', 1994, #220 ) ;
#70 = PERSON_AND_ORGANIZATION_ROLE ( 'classification_officer' ) ;
#71 = UNCERTAINTY_MEASURE_WITH_UNIT (LENGTH_MEASURE( 1.000000000000000100E-005 ), #38, 'distance_accuracy_value', 'NONE');
#72 = EDGE_CURVE ( 'NONE', #130, #56, #43, .T. ) ;
#73 = LINE ( 'NONE', #37, #6 ) ;
#74 = ORIENTED_EDGE ( 'NONE', *, *, #92, .F. ) ;
#75 = PRODUCT_RELATED_PRODUCT_CATEGORY ( 'detail', '', ( #229 ) ) ;
#76 = ORIENTED_EDGE ( 'NONE', *, *, #128, .F. ) ;
#77 = ORIENTED_EDGE ( 'NONE', *, *, #183, .F. ) ;
#78 = ORIENTED_EDGE ( 'NONE', *, *, #190, .T. ) ;
#79 = CARTESIAN_POINT ( 'NONE',  ( 4.750000000000000000, -25.00000000000001100, 25.00000000000000000 ) ) ;
#80 = EDGE_CURVE ( 'NONE', #170, #62, #129, .T. ) ;
#81 = ADVANCED_FACE ( 'NONE', ( #10 ), #193, .F. ) ;
#82 = DIRECTION ( 'NONE',  ( -0.0000000000000000000, 1.000000000000000000, 0.0000000000000000000 ) ) ;
#83 = VECTOR ( 'NONE', #213, 1000.000000000000000 ) ;
#84 = DIRECTION ( 'NONE',  ( -1.000000000000000000, 0.0000000000000000000, -0.0000000000000000000 ) ) ;
#85 = CARTESIAN_POINT ( 'NONE',  ( -4.750000000000000000, -25.00000000000001100, 25.00000000000000000 ) ) ;
#86 = DIRECTION ( 'NONE',  ( 0.0000000000000000000, 0.0000000000000000000, -1.000000000000000000 ) ) ;
#87 = APPROVAL_ROLE ( '' ) ;
#88 = VERTEX_POINT ( 'NONE', #233 ) ;
#89 = EDGE_LOOP ( 'NONE', ( #169, #166, #8, #78 ) ) ;
#90 = APPROVAL_DATE_TIME ( #175, #231 ) ;
#91 = CC_DESIGN_DATE_AND_TIME_ASSIGNMENT ( #16, #199, ( #172 ) ) ;
#92 = EDGE_CURVE ( 'NONE', #56, #188, #57, .T. ) ;
#93 = LOCAL_TIME ( 15, 15, 48.00000000000000000, #49 ) ;
#94 = CARTESIAN_POINT ( 'NONE',  ( 4.750000000000000000, 24.99999999999997900, 25.00000000000000000 ) ) ;
#95 = CC_DESIGN_APPROVAL ( #185, ( #172 ) ) ;
#96 = CARTESIAN_POINT ( 'NONE',  ( 4.750000000000000000, -25.00000000000001100, 25.00000000000000000 ) ) ;
#97 = APPROVAL_PERSON_ORGANIZATION ( #201, #231, #50 ) ;
#98 = CARTESIAN_POINT ( 'NONE',  ( 4.750000000000000000, 24.99999999999997900, 25.00000000000000000 ) ) ;
#99 = DIRECTION ( 'NONE',  ( 0.0000000000000000000, -1.000000000000000000, -2.775557561562891400E-016 ) ) ;
#100 = EDGE_LOOP ( 'NONE', ( #151, #32, #230, #202 ) ) ;
#101 = VECTOR ( 'NONE', #194, 1000.000000000000000 ) ;
#102 = APPLICATION_CONTEXT ( 'configuration controlled 3d designs of mechanical parts and assemblies' ) ;
#103 = CC_DESIGN_DATE_AND_TIME_ASSIGNMENT ( #3, #200, ( #14 ) ) ;
#104 = PRODUCT_DEFINITION_SHAPE ( 'NONE', 'NONE',  #172 ) ;
#105 = VECTOR ( 'NONE', #34, 1000.000000000000000 ) ;
#106 = CALENDAR_DATE ( 2018, 12, 3 ) ;
#107 = EDGE_LOOP ( 'NONE', ( #156, #76, #77, #135 ) ) ;
#108 = COORDINATED_UNIVERSAL_TIME_OFFSET ( 5, 0, .BEHIND. ) ;
#109 = FACE_OUTER_BOUND ( 'NONE', #225, .T. ) ;
#110 = LOCAL_TIME ( 15, 15, 48.00000000000000000, #116 ) ;
#111 = CLOSED_SHELL ( 'NONE', ( #41, #155, #113, #81, #217, #211 ) ) ;
#112 = LINE ( 'NONE', #122, #105 ) ;
#113 = ADVANCED_FACE ( 'NONE', ( #28 ), #214, .F. ) ;
#114 = CARTESIAN_POINT ( 'NONE',  ( -4.750000000000000000, 24.99999999999997900, 25.00000000000000000 ) ) ;
#115 = AXIS2_PLACEMENT_3D ( 'NONE', #19, #5, #86 ) ;
#116 = COORDINATED_UNIVERSAL_TIME_OFFSET ( 5, 0, .BEHIND. ) ;
#117 =( NAMED_UNIT ( * ) PLANE_ANGLE_UNIT ( ) SI_UNIT ( $, .RADIAN. ) );
#118 = DIRECTION ( 'NONE',  ( 1.000000000000000000, 0.0000000000000000000, 0.0000000000000000000 ) ) ;
#119 = ORIENTED_EDGE ( 'NONE', *, *, #183, .T. ) ;
#120 = LINE ( 'NONE', #98, #192 ) ;
#121 = PERSON_AND_ORGANIZATION_ROLE ( 'design_supplier' ) ;
#122 = CARTESIAN_POINT ( 'NONE',  ( 4.750000000000000000, 24.99999999999997900, 25.00000000000000000 ) ) ;
#123 = FACE_OUTER_BOUND ( 'NONE', #89, .T. ) ;
#124 = AXIS2_PLACEMENT_3D ( 'NONE', #94, #99, #157 ) ;
#125 = PERSON_AND_ORGANIZATION ( #232, #35 ) ;
#126 = PERSON_AND_ORGANIZATION ( #232, #35 ) ;
#127 = VERTEX_POINT ( 'NONE', #176 ) ;
#128 = EDGE_CURVE ( 'NONE', #13, #170, #154, .T. ) ;
#129 = LINE ( 'NONE', #208, #207 ) ;
#130 = VERTEX_POINT ( 'NONE', #15 ) ;
#131 = CC_DESIGN_APPROVAL ( #231, ( #167 ) ) ;
#132 = DIRECTION ( 'NONE',  ( 0.0000000000000000000, -0.0000000000000000000, 1.000000000000000000 ) ) ;
#133 = CARTESIAN_POINT ( 'NONE',  ( -4.750000000000000000, -25.00000000000001100, 25.00000000000000000 ) ) ;
#134 = PERSON_AND_ORGANIZATION ( #232, #35 ) ;
#135 = ORIENTED_EDGE ( 'NONE', *, *, #203, .F. ) ;
#136 = CARTESIAN_POINT ( 'NONE',  ( -4.750000000000000000, 24.99999999999998900, -25.00000000000000000 ) ) ;
#137 = AXIS2_PLACEMENT_3D ( 'NONE', #161, #159, #162 ) ;
#138 = CARTESIAN_POINT ( 'NONE',  ( 4.750000000000000000, -25.00000000000001100, 25.00000000000000000 ) ) ;
#139 = DIRECTION ( 'NONE',  ( 0.0000000000000000000, -1.000000000000000000, 0.0000000000000000000 ) ) ;
#140 = LOCAL_TIME ( 15, 15, 48.00000000000000000, #108 ) ;
#141 = APPROVAL_STATUS ( 'not_yet_approved' ) ;
#142 = CC_DESIGN_PERSON_AND_ORGANIZATION_ASSIGNMENT ( #134, #70, ( #14 ) ) ;
#143 = APPROVAL_DATE_TIME ( #51, #152 ) ;
#144 = APPROVAL_ROLE ( '' ) ;
#145 = APPROVAL_STATUS ( 'not_yet_approved' ) ;
#146 = EDGE_CURVE ( 'NONE', #130, #62, #171, .T. ) ;
#147 = ORIENTED_EDGE ( 'NONE', *, *, #146, .T. ) ;
#148 = APPROVAL_PERSON_ORGANIZATION ( #180, #185, #144 ) ;
#149 = COORDINATED_UNIVERSAL_TIME_OFFSET ( 5, 0, .BEHIND. ) ;
#150 = VECTOR ( 'NONE', #139, 1000.000000000000000 ) ;
#151 = ORIENTED_EDGE ( 'NONE', *, *, #42, .T. ) ;
#152 = APPROVAL ( #36, 'UNSPECIFIED' ) ;
#153 = ORIENTED_EDGE ( 'NONE', *, *, #190, .F. ) ;
#154 = LINE ( 'NONE', #191, #101 ) ;
#155 = ADVANCED_FACE ( 'NONE', ( #109 ), #46, .F. ) ;
#156 = ORIENTED_EDGE ( 'NONE', *, *, #80, .F. ) ;
#157 = DIRECTION ( 'NONE',  ( 0.0000000000000000000, 2.775557561562891400E-016, -1.000000000000000000 ) ) ;
#158 = CALENDAR_DATE ( 2018, 12, 3 ) ;
#159 = DIRECTION ( 'NONE',  ( -0.0000000000000000000, 0.0000000000000000000, 1.000000000000000000 ) ) ;
#160 = CARTESIAN_POINT ( 'NONE',  ( 4.750000000000000000, 24.99999999999998900, -25.00000000000000000 ) ) ;
#161 = CARTESIAN_POINT ( 'NONE',  ( 4.750000000000000000, 24.99999999999998900, -25.00000000000000000 ) ) ;
#162 = DIRECTION ( 'NONE',  ( 1.000000000000000000, 0.0000000000000000000, 0.0000000000000000000 ) ) ;
#163 = DIRECTION ( 'NONE',  ( 0.0000000000000000000, 0.0000000000000000000, -1.000000000000000000 ) ) ;
#164 = ORIENTED_EDGE ( 'NONE', *, *, #216, .F. ) ;
#165 = DIRECTION ( 'NONE',  ( 1.000000000000000000, 0.0000000000000000000, 0.0000000000000000000 ) ) ;
#166 = ORIENTED_EDGE ( 'NONE', *, *, #146, .F. ) ;
#167 = PRODUCT_DEFINITION_FORMATION_WITH_SPECIFIED_SOURCE ( 'ANY', '', #229, .NOT_KNOWN. ) ;
#168 = ORIENTED_EDGE ( 'NONE', *, *, #128, .T. ) ;
#169 = ORIENTED_EDGE ( 'NONE', *, *, #80, .T. ) ;
#170 = VERTEX_POINT ( 'NONE', #114 ) ;
#171 = LINE ( 'NONE', #138, #226 ) ;
#172 = PRODUCT_DEFINITION ( 'UNKNOWN', '', #167, #178 ) ;
#173 = DIRECTION ( 'NONE',  ( -1.000000000000000000, -0.0000000000000000000, -0.0000000000000000000 ) ) ;
#174 = CC_DESIGN_APPROVAL ( #152, ( #14 ) ) ;
#175 = DATE_AND_TIME ( #45, #39 ) ;
#176 = CARTESIAN_POINT ( 'NONE',  ( 4.750000000000000000, 24.99999999999997900, 25.00000000000000000 ) ) ;
#177 = PERSON_AND_ORGANIZATION_ROLE ( 'design_owner' ) ;
#178 = DESIGN_CONTEXT ( 'detailed design', #220, 'design' ) ;
#179 = PERSON_AND_ORGANIZATION_ROLE ( 'creator' ) ;
#180 = PERSON_AND_ORGANIZATION ( #232, #35 ) ;
#181 = DIRECTION ( 'NONE',  ( 0.0000000000000000000, 0.0000000000000000000, 1.000000000000000000 ) ) ;
#182 = SECURITY_CLASSIFICATION_LEVEL ( 'unclassified' ) ;
#183 = EDGE_CURVE ( 'NONE', #188, #13, #198, .T. ) ;
#184 = APPLICATION_PROTOCOL_DEFINITION ( 'international standard', 'config_control_design', 1994, #102 ) ;
#185 = APPROVAL ( #145, 'UNSPECIFIED' ) ;
#186 = APPROVAL_DATE_TIME ( #22, #185 ) ;
#187 = CC_DESIGN_PERSON_AND_ORGANIZATION_ASSIGNMENT ( #209, #4, ( #172 ) ) ;
#188 = VERTEX_POINT ( 'NONE', #33 ) ;
#189 = VECTOR ( 'NONE', #18, 1000.000000000000000 ) ;
#190 = EDGE_CURVE ( 'NONE', #127, #170, #120, .T. ) ;
#191 = CARTESIAN_POINT ( 'NONE',  ( -4.750000000000000000, 24.99999999999997900, 25.00000000000000000 ) ) ;
#192 = VECTOR ( 'NONE', #21, 1000.000000000000000 ) ;
#193 = PLANE ( 'NONE',  #124 ) ;
#194 = DIRECTION ( 'NONE',  ( -0.0000000000000000000, -2.775557561562891400E-016, 1.000000000000000000 ) ) ;
#195 =( NAMED_UNIT ( * ) SI_UNIT ( $, .STERADIAN. ) SOLID_ANGLE_UNIT ( ) );
#196 = CC_DESIGN_PERSON_AND_ORGANIZATION_ASSIGNMENT ( #205, #121, ( #167 ) ) ;
#197 = EDGE_LOOP ( 'NONE', ( #168, #153, #164, #29 ) ) ;
#198 = LINE ( 'NONE', #136, #63 ) ;
#199 = DATE_TIME_ROLE ( 'creation_date' ) ;
#200 = DATE_TIME_ROLE ( 'classification_date' ) ;
#201 = PERSON_AND_ORGANIZATION ( #232, #35 ) ;
#202 = ORIENTED_EDGE ( 'NONE', *, *, #216, .T. ) ;
#203 = EDGE_CURVE ( 'NONE', #62, #188, #219, .T. ) ;
#204 = EDGE_CURVE ( 'NONE', #56, #88, #73, .T. ) ;
#205 = PERSON_AND_ORGANIZATION ( #232, #35 ) ;
#206 = VECTOR ( 'NONE', #237, 1000.000000000000000 ) ;
#207 = VECTOR ( 'NONE', #30, 1000.000000000000000 ) ;
#208 = CARTESIAN_POINT ( 'NONE',  ( -4.750000000000000000, 24.99999999999997900, 25.00000000000000000 ) ) ;
#209 = PERSON_AND_ORGANIZATION ( #232, #35 ) ;
#210 = FACE_OUTER_BOUND ( 'NONE', #107, .T. ) ;
#211 = ADVANCED_FACE ( 'NONE', ( #210 ), #54, .F. ) ;
#212 = CARTESIAN_POINT ( 'NONE',  ( -4.750000000000000000, 24.99999999999998900, -25.00000000000000000 ) ) ;
#213 = DIRECTION ( 'NONE',  ( 0.0000000000000000000, 0.0000000000000000000, -1.000000000000000000 ) ) ;
#214 = PLANE ( 'NONE',  #137 ) ;
#215 = DIRECTION ( 'NONE',  ( -0.0000000000000000000, 1.000000000000000000, -0.0000000000000000000 ) ) ;
#216 = EDGE_CURVE ( 'NONE', #88, #127, #112, .T. ) ;
#217 = ADVANCED_FACE ( 'NONE', ( #12 ), #2, .T. ) ;
#218 = CARTESIAN_POINT ( 'NONE',  ( 4.750000000000000000, 0.0000000000000000000, 0.0000000000000000000 ) ) ;
#219 = LINE ( 'NONE', #85, #23 ) ;
#220 = APPLICATION_CONTEXT ( 'configuration controlled 3d designs of mechanical parts and assemblies' ) ;
#221 = SHAPE_DEFINITION_REPRESENTATION ( #104, #224 ) ;
#222 = ORIENTED_EDGE ( 'NONE', *, *, #72, .F. ) ;
#223 = PERSON_AND_ORGANIZATION ( #232, #35 ) ;
#224 = ADVANCED_BREP_SHAPE_REPRESENTATION ( 'Web Model 43214_48469', ( #58, #27 ), #65 ) ;
#225 = EDGE_LOOP ( 'NONE', ( #25, #74, #222, #147 ) ) ;
#226 = VECTOR ( 'NONE', #173, 1000.000000000000000 ) ;
#227 = AXIS2_PLACEMENT_3D ( 'NONE', #218, #118, #163 ) ;
#228 = LOCAL_TIME ( 15, 15, 48.00000000000000000, #149 ) ;
#229 = PRODUCT ( 'Web Model 43214_48469', 'Web Model 43214_48469', '', ( #48 ) ) ;
#230 = ORIENTED_EDGE ( 'NONE', *, *, #204, .T. ) ;
#231 = APPROVAL ( #141, 'UNSPECIFIED' ) ;
#232 = PERSON ( 'UNSPECIFIED', 'UNSPECIFIED', 'UNSPECIFIED', ('UNSPECIFIED'), ('UNSPECIFIED'), ('UNSPECIFIED') ) ;
#233 = CARTESIAN_POINT ( 'NONE',  ( 4.750000000000000000, 24.99999999999998900, -25.00000000000000000 ) ) ;
#234 = CARTESIAN_POINT ( 'NONE',  ( 4.750000000000000000, -25.00000000000001100, -25.00000000000000000 ) ) ;
#235 = LINE ( 'NONE', #1, #150 ) ;
#236 = ORIENTED_EDGE ( 'NONE', *, *, #92, .T. ) ;
#237 = DIRECTION ( 'NONE',  ( -1.000000000000000000, -0.0000000000000000000, -0.0000000000000000000 ) ) ;
ENDSEC;
END-ISO-10303-21;
