ISO-10303-21;
HEADER;
FILE_DESCRIPTION (( 'STEP AP203' ),
    '1' );
FILE_NAME ('Web Model 15307_15307.step',
    '2020-05-28T15:36:02',
    ( '' ),
    ( '' ),
    'SwSTEP 2.0',
    'SolidWorks 2018',
    '' );
FILE_SCHEMA (( 'CONFIG_CONTROL_DESIGN' ));
ENDSEC;

DATA;
#1 = EDGE_CURVE ( 'NONE', #83, #62, #84, .T. ) ;
#2 = APPLICATION_PROTOCOL_DEFINITION ( 'international standard', 'config_control_design', 1994, #49 ) ;
#3 = APPROVAL_DATE_TIME ( #105, #115 ) ;
#4 = FACE_OUTER_BOUND ( 'NONE', #57, .T. ) ;
#5 = PRODUCT_DEFINITION_FORMATION_WITH_SPECIFIED_SOURCE ( 'ANY', '', #112, .NOT_KNOWN. ) ;
#6 = DIRECTION ( 'NONE',  ( 1.000000000000000000, 0.0000000000000000000, 0.0000000000000000000 ) ) ;
#7 = CIRCLE ( 'NONE', #73, 6.349999999999999645 ) ;
#8 = ADVANCED_FACE ( 'NONE', ( #4 ), #120, .F. ) ;
#9 = CARTESIAN_POINT ( 'NONE',  ( -1.000000000000000000, 0.0000000000000000000, 0.0000000000000000000 ) ) ;
#10 = CIRCLE ( 'NONE', #14, 6.349999999999999645 ) ;
#11 = CC_DESIGN_DATE_AND_TIME_ASSIGNMENT ( #93, #128, ( #129 ) ) ;
#12 = ADVANCED_BREP_SHAPE_REPRESENTATION ( 'Web Model 15307_15307', ( #45, #125 ), #144 ) ;
#13 = APPLICATION_PROTOCOL_DEFINITION ( 'international standard', 'config_control_design', 1994, #17 ) ;
#14 = AXIS2_PLACEMENT_3D ( 'NONE', #151, #124, #107 ) ;
#15 = DATE_TIME_ROLE ( 'creation_date' ) ;
#16 = AXIS2_PLACEMENT_3D ( 'NONE', #172, #6, #132 ) ;
#17 = APPLICATION_CONTEXT ( 'configuration controlled 3d designs of mechanical parts and assemblies' ) ;
#18 = PRODUCT_RELATED_PRODUCT_CATEGORY ( 'detail', '', ( #112 ) ) ;
#19 = PERSON_AND_ORGANIZATION ( #21, #98 ) ;
#20 = ORIENTED_EDGE ( 'NONE', *, *, #86, .T. ) ;
#21 = PERSON ( 'UNSPECIFIED', 'UNSPECIFIED', 'UNSPECIFIED', ('UNSPECIFIED'), ('UNSPECIFIED'), ('UNSPECIFIED') ) ;
#22 = APPROVAL_PERSON_ORGANIZATION ( #61, #111, #87 ) ;
#23 = VERTEX_POINT ( 'NONE', #42 ) ;
#24 = APPROVAL ( #85, 'UNSPECIFIED' ) ;
#25 = FACE_OUTER_BOUND ( 'NONE', #106, .T. ) ;
#26 = DIRECTION ( 'NONE',  ( -1.000000000000000000, -0.0000000000000000000, -0.0000000000000000000 ) ) ;
#27 = PLANE ( 'NONE',  #16 ) ;
#28 = DIRECTION ( 'NONE',  ( 0.0000000000000000000, 0.0000000000000000000, -1.000000000000000000 ) ) ;
#29 = PERSON_AND_ORGANIZATION ( #21, #98 ) ;
#30 = CARTESIAN_POINT ( 'NONE',  ( -1.000000000000000000, 0.0000000000000000000, 0.0000000000000000000 ) ) ;
#31 = CARTESIAN_POINT ( 'NONE',  ( 1.000000000000000000, 0.0000000000000000000, 0.0000000000000000000 ) ) ;
#32 = PERSON_AND_ORGANIZATION_ROLE ( 'creator' ) ;
#33 = COORDINATED_UNIVERSAL_TIME_OFFSET ( 5, 0, .BEHIND. ) ;
#34 =( NAMED_UNIT ( * ) PLANE_ANGLE_UNIT ( ) SI_UNIT ( $, .RADIAN. ) );
#35 = DIRECTION ( 'NONE',  ( 0.0000000000000000000, 0.0000000000000000000, 1.000000000000000000 ) ) ;
#36 = APPROVAL_STATUS ( 'not_yet_approved' ) ;
#37 = APPROVAL_DATE_TIME ( #70, #24 ) ;
#38 = AXIS2_PLACEMENT_3D ( 'NONE', #158, #119, #28 ) ;
#39 = APPROVAL_DATE_TIME ( #139, #111 ) ;
#40 = COORDINATED_UNIVERSAL_TIME_OFFSET ( 5, 0, .BEHIND. ) ;
#41 = DIRECTION ( 'NONE',  ( 0.0000000000000000000, 0.0000000000000000000, 1.000000000000000000 ) ) ;
#42 = CARTESIAN_POINT ( 'NONE',  ( 1.000000000000000000, 7.776507174585692163E-16, -6.349999999999999645 ) ) ;
#43 = CYLINDRICAL_SURFACE ( 'NONE', #167, 6.349999999999999645 ) ;
#44 = DIRECTION ( 'NONE',  ( 1.000000000000000000, 0.0000000000000000000, 0.0000000000000000000 ) ) ;
#45 = MANIFOLD_SOLID_BREP ( 'Boss-Extrude1', #147 ) ;
#46 = DIRECTION ( 'NONE',  ( 1.000000000000000000, 0.0000000000000000000, 0.0000000000000000000 ) ) ;
#47 = CARTESIAN_POINT ( 'NONE',  ( -1.000000000000000000, 0.0000000000000000000, 0.0000000000000000000 ) ) ;
#48 = CALENDAR_DATE ( 2020, 28, 5 ) ;
#49 = APPLICATION_CONTEXT ( 'configuration controlled 3d designs of mechanical parts and assemblies' ) ;
#50 = ORIENTED_EDGE ( 'NONE', *, *, #130, .T. ) ;
#51 = PERSON_AND_ORGANIZATION_ROLE ( 'design_owner' ) ;
#52 = ORIENTED_EDGE ( 'NONE', *, *, #1, .T. ) ;
#53 = EDGE_CURVE ( 'NONE', #23, #175, #161, .T. ) ;
#54 = VECTOR ( 'NONE', #81, 1000.000000000000000 ) ;
#55 = EDGE_LOOP ( 'NONE', ( #118, #116, #50, #94 ) ) ;
#56 = CARTESIAN_POINT ( 'NONE',  ( 1.000000000000000000, 0.0000000000000000000, 6.349999999999999645 ) ) ;
#57 = EDGE_LOOP ( 'NONE', ( #114, #89 ) ) ;
#58 = ORIENTED_EDGE ( 'NONE', *, *, #53, .F. ) ;
#59 = PRODUCT_DEFINITION_SHAPE ( 'NONE', 'NONE',  #152 ) ;
#60 = APPROVAL_STATUS ( 'not_yet_approved' ) ;
#61 = PERSON_AND_ORGANIZATION ( #21, #98 ) ;
#62 = VERTEX_POINT ( 'NONE', #146 ) ;
#63 = CC_DESIGN_DATE_AND_TIME_ASSIGNMENT ( #140, #15, ( #152 ) ) ;
#64 = DIRECTION ( 'NONE',  ( 0.0000000000000000000, 0.0000000000000000000, -1.000000000000000000 ) ) ;
#65 = PERSON_AND_ORGANIZATION ( #21, #98 ) ;
#66 = DIRECTION ( 'NONE',  ( -1.000000000000000000, -0.0000000000000000000, -0.0000000000000000000 ) ) ;
#67 = AXIS2_PLACEMENT_3D ( 'NONE', #103, #26, #41 ) ;
#68 = ADVANCED_FACE ( 'NONE', ( #25 ), #27, .T. ) ;
#69 = CARTESIAN_POINT ( 'NONE',  ( -1.000000000000000000, 7.776507174585692163E-16, -6.349999999999999645 ) ) ;
#70 = DATE_AND_TIME ( #79, #145 ) ;
#71 = APPROVAL_ROLE ( '' ) ;
#72 = LOCAL_TIME ( 11, 36, 2.000000000000000000, #102 ) ;
#73 = AXIS2_PLACEMENT_3D ( 'NONE', #9, #117, #64 ) ;
#74 = PERSON_AND_ORGANIZATION ( #21, #98 ) ;
#75 = CC_DESIGN_APPROVAL ( #24, ( #5 ) ) ;
#76 = CIRCLE ( 'NONE', #90, 6.349999999999999645 ) ;
#77 = DESIGN_CONTEXT ( 'detailed design', #49, 'design' ) ;
#78 = COORDINATED_UNIVERSAL_TIME_OFFSET ( 5, 0, .BEHIND. ) ;
#79 = CALENDAR_DATE ( 2020, 28, 5 ) ;
#80 = CIRCLE ( 'NONE', #38, 6.349999999999999645 ) ;
#81 = DIRECTION ( 'NONE',  ( -1.000000000000000000, -0.0000000000000000000, -0.0000000000000000000 ) ) ;
#82 = CC_DESIGN_SECURITY_CLASSIFICATION ( #129, ( #5 ) ) ;
#83 = VERTEX_POINT ( 'NONE', #134 ) ;
#84 = LINE ( 'NONE', #56, #54 ) ;
#85 = APPROVAL_STATUS ( 'not_yet_approved' ) ;
#86 = EDGE_CURVE ( 'NONE', #23, #83, #80, .T. ) ;
#87 = APPROVAL_ROLE ( '' ) ;
#88 = CC_DESIGN_APPROVAL ( #111, ( #129 ) ) ;
#89 = ORIENTED_EDGE ( 'NONE', *, *, #130, .F. ) ;
#90 = AXIS2_PLACEMENT_3D ( 'NONE', #47, #46, #149 ) ;
#91 = EDGE_LOOP ( 'NONE', ( #58, #154, #52, #141 ) ) ;
#92 = CARTESIAN_POINT ( 'NONE',  ( 1.000000000000000000, 7.776507174585692163E-16, -6.349999999999999645 ) ) ;
#93 = DATE_AND_TIME ( #162, #133 ) ;
#94 = ORIENTED_EDGE ( 'NONE', *, *, #1, .F. ) ;
#95 =( LENGTH_UNIT ( ) NAMED_UNIT ( * ) SI_UNIT ( .MILLI., .METRE. ) );
#96 = CC_DESIGN_PERSON_AND_ORGANIZATION_ASSIGNMENT ( #74, #138, ( #152 ) ) ;
#97 =( NAMED_UNIT ( * ) SI_UNIT ( $, .STERADIAN. ) SOLID_ANGLE_UNIT ( ) );
#98 = ORGANIZATION ( 'UNSPECIFIED', 'UNSPECIFIED', '' ) ;
#99 = CARTESIAN_POINT ( 'NONE',  ( 0.0000000000000000000, 0.0000000000000000000, 0.0000000000000000000 ) ) ;
#100 = CC_DESIGN_PERSON_AND_ORGANIZATION_ASSIGNMENT ( #137, #32, ( #5 ) ) ;
#101 = PERSON_AND_ORGANIZATION ( #21, #98 ) ;
#102 = COORDINATED_UNIVERSAL_TIME_OFFSET ( 5, 0, .BEHIND. ) ;
#103 = CARTESIAN_POINT ( 'NONE',  ( 1.000000000000000000, 0.0000000000000000000, 0.0000000000000000000 ) ) ;
#104 = CALENDAR_DATE ( 2020, 28, 5 ) ;
#105 = DATE_AND_TIME ( #48, #110 ) ;
#106 = EDGE_LOOP ( 'NONE', ( #168, #20 ) ) ;
#107 = DIRECTION ( 'NONE',  ( 0.0000000000000000000, 0.0000000000000000000, -1.000000000000000000 ) ) ;
#108 = LOCAL_TIME ( 11, 36, 2.000000000000000000, #40 ) ;
#109 = DIRECTION ( 'NONE',  ( -1.000000000000000000, -0.0000000000000000000, -0.0000000000000000000 ) ) ;
#110 = LOCAL_TIME ( 11, 36, 2.000000000000000000, #78 ) ;
#111 = APPROVAL ( #60, 'UNSPECIFIED' ) ;
#112 = PRODUCT ( 'Web Model 15307_15307', 'Web Model 15307_15307', '', ( #153 ) ) ;
#113 = COORDINATED_UNIVERSAL_TIME_OFFSET ( 5, 0, .BEHIND. ) ;
#114 = ORIENTED_EDGE ( 'NONE', *, *, #123, .F. ) ;
#115 = APPROVAL ( #36, 'UNSPECIFIED' ) ;
#116 = ORIENTED_EDGE ( 'NONE', *, *, #53, .T. ) ;
#117 = DIRECTION ( 'NONE',  ( 1.000000000000000000, 0.0000000000000000000, 0.0000000000000000000 ) ) ;
#118 = ORIENTED_EDGE ( 'NONE', *, *, #86, .F. ) ;
#119 = DIRECTION ( 'NONE',  ( 1.000000000000000000, 0.0000000000000000000, 0.0000000000000000000 ) ) ;
#120 = PLANE ( 'NONE',  #173 ) ;
#121 = UNCERTAINTY_MEASURE_WITH_UNIT (LENGTH_MEASURE( 1.000000000000000082E-05 ), #95, 'distance_accuracy_value', 'NONE');
#122 = FACE_OUTER_BOUND ( 'NONE', #91, .T. ) ;
#123 = EDGE_CURVE ( 'NONE', #62, #175, #76, .T. ) ;
#124 = DIRECTION ( 'NONE',  ( 1.000000000000000000, 0.0000000000000000000, 0.0000000000000000000 ) ) ;
#125 = AXIS2_PLACEMENT_3D ( 'NONE', #99, #35, #174 ) ;
#126 = DIRECTION ( 'NONE',  ( 0.0000000000000000000, 0.0000000000000000000, 1.000000000000000000 ) ) ;
#127 = APPROVAL_ROLE ( '' ) ;
#128 = DATE_TIME_ROLE ( 'classification_date' ) ;
#129 = SECURITY_CLASSIFICATION ( '', '', #165 ) ;
#130 = EDGE_CURVE ( 'NONE', #175, #62, #7, .T. ) ;
#131 = VECTOR ( 'NONE', #66, 1000.000000000000000 ) ;
#132 = DIRECTION ( 'NONE',  ( 0.0000000000000000000, 0.0000000000000000000, -1.000000000000000000 ) ) ;
#133 = LOCAL_TIME ( 11, 36, 2.000000000000000000, #33 ) ;
#134 = CARTESIAN_POINT ( 'NONE',  ( 1.000000000000000000, 0.0000000000000000000, 6.349999999999999645 ) ) ;
#135 = ADVANCED_FACE ( 'NONE', ( #150 ), #155, .T. ) ;
#136 = PERSON_AND_ORGANIZATION_ROLE ( 'design_supplier' ) ;
#137 = PERSON_AND_ORGANIZATION ( #21, #98 ) ;
#138 = PERSON_AND_ORGANIZATION_ROLE ( 'creator' ) ;
#139 = DATE_AND_TIME ( #104, #72 ) ;
#140 = DATE_AND_TIME ( #160, #108 ) ;
#141 = ORIENTED_EDGE ( 'NONE', *, *, #123, .T. ) ;
#142 = SHAPE_DEFINITION_REPRESENTATION ( #59, #12 ) ;
#143 = APPROVAL_PERSON_ORGANIZATION ( #163, #115, #127 ) ;
#144 =( GEOMETRIC_REPRESENTATION_CONTEXT ( 3 ) GLOBAL_UNCERTAINTY_ASSIGNED_CONTEXT ( ( #121 ) ) GLOBAL_UNIT_ASSIGNED_CONTEXT ( ( #95, #34, #97 ) ) REPRESENTATION_CONTEXT ( 'NONE', 'WORKASPACE' ) );
#145 = LOCAL_TIME ( 11, 36, 2.000000000000000000, #113 ) ;
#146 = CARTESIAN_POINT ( 'NONE',  ( -1.000000000000000000, 0.0000000000000000000, 6.349999999999999645 ) ) ;
#147 = CLOSED_SHELL ( 'NONE', ( #135, #159, #68, #8 ) ) ;
#148 = DIRECTION ( 'NONE',  ( 0.0000000000000000000, 0.0000000000000000000, -1.000000000000000000 ) ) ;
#149 = DIRECTION ( 'NONE',  ( 0.0000000000000000000, 0.0000000000000000000, -1.000000000000000000 ) ) ;
#150 = FACE_OUTER_BOUND ( 'NONE', #55, .T. ) ;
#151 = CARTESIAN_POINT ( 'NONE',  ( 1.000000000000000000, 0.0000000000000000000, 0.0000000000000000000 ) ) ;
#152 = PRODUCT_DEFINITION ( 'UNKNOWN', '', #5, #77 ) ;
#153 = MECHANICAL_CONTEXT ( 'NONE', #17, 'mechanical' ) ;
#154 = ORIENTED_EDGE ( 'NONE', *, *, #169, .F. ) ;
#155 = CYLINDRICAL_SURFACE ( 'NONE', #67, 6.349999999999999645 ) ;
#156 = CC_DESIGN_APPROVAL ( #115, ( #152 ) ) ;
#157 = CC_DESIGN_PERSON_AND_ORGANIZATION_ASSIGNMENT ( #101, #136, ( #5 ) ) ;
#158 = CARTESIAN_POINT ( 'NONE',  ( 1.000000000000000000, 0.0000000000000000000, 0.0000000000000000000 ) ) ;
#159 = ADVANCED_FACE ( 'NONE', ( #122 ), #43, .T. ) ;
#160 = CALENDAR_DATE ( 2020, 28, 5 ) ;
#161 = LINE ( 'NONE', #92, #131 ) ;
#162 = CALENDAR_DATE ( 2020, 28, 5 ) ;
#163 = PERSON_AND_ORGANIZATION ( #21, #98 ) ;
#164 = PERSON_AND_ORGANIZATION_ROLE ( 'classification_officer' ) ;
#165 = SECURITY_CLASSIFICATION_LEVEL ( 'unclassified' ) ;
#166 = CC_DESIGN_PERSON_AND_ORGANIZATION_ASSIGNMENT ( #65, #164, ( #129 ) ) ;
#167 = AXIS2_PLACEMENT_3D ( 'NONE', #31, #109, #126 ) ;
#168 = ORIENTED_EDGE ( 'NONE', *, *, #169, .T. ) ;
#169 = EDGE_CURVE ( 'NONE', #83, #23, #10, .T. ) ;
#170 = CC_DESIGN_PERSON_AND_ORGANIZATION_ASSIGNMENT ( #29, #51, ( #112 ) ) ;
#171 = APPROVAL_PERSON_ORGANIZATION ( #19, #24, #71 ) ;
#172 = CARTESIAN_POINT ( 'NONE',  ( 1.000000000000000000, 0.0000000000000000000, 0.0000000000000000000 ) ) ;
#173 = AXIS2_PLACEMENT_3D ( 'NONE', #30, #44, #148 ) ;
#174 = DIRECTION ( 'NONE',  ( 1.000000000000000000, 0.0000000000000000000, 0.0000000000000000000 ) ) ;
#175 = VERTEX_POINT ( 'NONE', #69 ) ;
ENDSEC;
END-ISO-10303-21;
