ISO-10303-21;
HEADER;
FILE_DESCRIPTION (( 'STEP AP203' ),
    '1' );
FILE_NAME ('Web Model 45577_13293.step',
    '2020-11-03T21:49:30',
    ( '' ),
    ( '' ),
    'SwSTEP 2.0',
    'SolidWorks 2018',
    '' );
FILE_SCHEMA (( 'CONFIG_CONTROL_DESIGN' ));
ENDSEC;

DATA;
#1 = DIRECTION ( 'NONE',  ( 1.000000000000000000, 0.0000000000000000000, 0.0000000000000000000 ) ) ;
#2 = CALENDAR_DATE ( 2020, 3, 11 ) ;
#3 = ORIENTED_EDGE ( 'NONE', *, *, #91, .F. ) ;
#4 =( LENGTH_UNIT ( ) NAMED_UNIT ( * ) SI_UNIT ( .MILLI., .METRE. ) );
#5 = COORDINATED_UNIVERSAL_TIME_OFFSET ( 5, 0, .BEHIND. ) ;
#6 = DIRECTION ( 'NONE',  ( 1.000000000000000000, 0.0000000000000000000, 0.0000000000000000000 ) ) ;
#7 = COORDINATED_UNIVERSAL_TIME_OFFSET ( 5, 0, .BEHIND. ) ;
#8 = ORIENTED_EDGE ( 'NONE', *, *, #133, .F. ) ;
#9 = AXIS2_PLACEMENT_3D ( 'NONE', #83, #74, #31 ) ;
#10 = ADVANCED_FACE ( 'NONE', ( #110 ), #132, .T. ) ;
#11 = CC_DESIGN_PERSON_AND_ORGANIZATION_ASSIGNMENT ( #136, #127, ( #34 ) ) ;
#12 = EDGE_LOOP ( 'NONE', ( #55, #68 ) ) ;
#13 = LOCAL_TIME ( 16, 49, 30.00000000000000000, #51 ) ;
#14 = CARTESIAN_POINT ( 'NONE',  ( -10.00000000000000000, 1.224646799147353256E-15, -3.000000000000000000 ) ) ;
#15 = CC_DESIGN_PERSON_AND_ORGANIZATION_ASSIGNMENT ( #140, #57, ( #154 ) ) ;
#16 = CALENDAR_DATE ( 2020, 3, 11 ) ;
#17 = VERTEX_POINT ( 'NONE', #14 ) ;
#18 = CARTESIAN_POINT ( 'NONE',  ( -10.00000000000000000, 1.224646799147353256E-15, -3.000000000000000000 ) ) ;
#19 = CC_DESIGN_PERSON_AND_ORGANIZATION_ASSIGNMENT ( #54, #30, ( #41 ) ) ;
#20 = DIRECTION ( 'NONE',  ( 0.0000000000000000000, 0.0000000000000000000, 1.000000000000000000 ) ) ;
#21 = LOCAL_TIME ( 16, 49, 30.00000000000000000, #149 ) ;
#22 = VERTEX_POINT ( 'NONE', #163 ) ;
#23 = ADVANCED_FACE ( 'NONE', ( #171 ), #43, .T. ) ;
#24 = CC_DESIGN_PERSON_AND_ORGANIZATION_ASSIGNMENT ( #39, #135, ( #38 ) ) ;
#25 = LOCAL_TIME ( 16, 49, 30.00000000000000000, #7 ) ;
#26 = DIRECTION ( 'NONE',  ( 1.000000000000000000, 0.0000000000000000000, -0.0000000000000000000 ) ) ;
#27 = DIRECTION ( 'NONE',  ( 1.000000000000000000, 0.0000000000000000000, 0.0000000000000000000 ) ) ;
#28 = ORIENTED_EDGE ( 'NONE', *, *, #138, .F. ) ;
#29 = DIRECTION ( 'NONE',  ( 0.0000000000000000000, 0.0000000000000000000, 1.000000000000000000 ) ) ;
#30 = PERSON_AND_ORGANIZATION_ROLE ( 'classification_officer' ) ;
#31 = DIRECTION ( 'NONE',  ( 1.000000000000000000, 0.0000000000000000000, 0.0000000000000000000 ) ) ;
#32 = CC_DESIGN_APPROVAL ( #86, ( #154 ) ) ;
#33 =( NAMED_UNIT ( * ) SI_UNIT ( $, .STERADIAN. ) SOLID_ANGLE_UNIT ( ) );
#34 = PRODUCT ( 'Web Model 45577_13293', 'Web Model 45577_13293', '', ( #35 ) ) ;
#35 = MECHANICAL_CONTEXT ( 'NONE', #168, 'mechanical' ) ;
#36 = PERSON_AND_ORGANIZATION ( #100, #131 ) ;
#37 = LOCAL_TIME ( 16, 49, 30.00000000000000000, #5 ) ;
#38 = PRODUCT_DEFINITION ( 'UNKNOWN', '', #154, #50 ) ;
#39 = PERSON_AND_ORGANIZATION ( #100, #131 ) ;
#40 = DATE_AND_TIME ( #92, #25 ) ;
#41 = SECURITY_CLASSIFICATION ( '', '', #70 ) ;
#42 = CIRCLE ( 'NONE', #9, 10.00000000000000000 ) ;
#43 = PLANE ( 'NONE',  #174 ) ;
#44 = CC_DESIGN_PERSON_AND_ORGANIZATION_ASSIGNMENT ( #36, #150, ( #154 ) ) ;
#45 = DATE_TIME_ROLE ( 'creation_date' ) ;
#46 = APPROVAL_STATUS ( 'not_yet_approved' ) ;
#47 = CARTESIAN_POINT ( 'NONE',  ( 10.00000000000000000, 0.0000000000000000000, -3.000000000000000000 ) ) ;
#48 = PRODUCT_DEFINITION_SHAPE ( 'NONE', 'NONE',  #38 ) ;
#49 = CIRCLE ( 'NONE', #63, 10.00000000000000000 ) ;
#50 = DESIGN_CONTEXT ( 'detailed design', #81, 'design' ) ;
#51 = COORDINATED_UNIVERSAL_TIME_OFFSET ( 5, 0, .BEHIND. ) ;
#52 = VERTEX_POINT ( 'NONE', #94 ) ;
#53 = CC_DESIGN_APPROVAL ( #60, ( #38 ) ) ;
#54 = PERSON_AND_ORGANIZATION ( #100, #131 ) ;
#55 = ORIENTED_EDGE ( 'NONE', *, *, #122, .T. ) ;
#56 = DIRECTION ( 'NONE',  ( 0.0000000000000000000, 0.0000000000000000000, 1.000000000000000000 ) ) ;
#57 = PERSON_AND_ORGANIZATION_ROLE ( 'creator' ) ;
#58 = APPROVAL_ROLE ( '' ) ;
#59 = VECTOR ( 'NONE', #123, 1000.000000000000000 ) ;
#60 = APPROVAL ( #166, 'UNSPECIFIED' ) ;
#61 = APPROVAL_STATUS ( 'not_yet_approved' ) ;
#62 = DIRECTION ( 'NONE',  ( 1.000000000000000000, 0.0000000000000000000, 0.0000000000000000000 ) ) ;
#63 = AXIS2_PLACEMENT_3D ( 'NONE', #139, #109, #62 ) ;
#64 = CYLINDRICAL_SURFACE ( 'NONE', #118, 10.00000000000000000 ) ;
#65 = ORIENTED_EDGE ( 'NONE', *, *, #159, .T. ) ;
#66 = APPROVAL_DATE_TIME ( #126, #86 ) ;
#67 = APPROVAL_PERSON_ORGANIZATION ( #175, #86, #73 ) ;
#68 = ORIENTED_EDGE ( 'NONE', *, *, #133, .T. ) ;
#69 = CC_DESIGN_DATE_AND_TIME_ASSIGNMENT ( #95, #45, ( #38 ) ) ;
#70 = SECURITY_CLASSIFICATION_LEVEL ( 'unclassified' ) ;
#71 =( NAMED_UNIT ( * ) PLANE_ANGLE_UNIT ( ) SI_UNIT ( $, .RADIAN. ) );
#72 = CARTESIAN_POINT ( 'NONE',  ( 0.0000000000000000000, 0.0000000000000000000, 0.0000000000000000000 ) ) ;
#73 = APPROVAL_ROLE ( '' ) ;
#74 = DIRECTION ( 'NONE',  ( 0.0000000000000000000, 0.0000000000000000000, 1.000000000000000000 ) ) ;
#75 = LINE ( 'NONE', #18, #59 ) ;
#76 = ORIENTED_EDGE ( 'NONE', *, *, #138, .T. ) ;
#77 = DIRECTION ( 'NONE',  ( 0.0000000000000000000, 0.0000000000000000000, 1.000000000000000000 ) ) ;
#78 = FACE_OUTER_BOUND ( 'NONE', #90, .T. ) ;
#79 = CARTESIAN_POINT ( 'NONE',  ( 0.0000000000000000000, 0.0000000000000000000, -3.000000000000000000 ) ) ;
#80 = PLANE ( 'NONE',  #98 ) ;
#81 = APPLICATION_CONTEXT ( 'configuration controlled 3d designs of mechanical parts and assemblies' ) ;
#82 = UNCERTAINTY_MEASURE_WITH_UNIT (LENGTH_MEASURE( 1.000000000000000082E-05 ), #4, 'distance_accuracy_value', 'NONE');
#83 = CARTESIAN_POINT ( 'NONE',  ( 0.0000000000000000000, 0.0000000000000000000, 0.0000000000000000000 ) ) ;
#84 = APPROVAL_PERSON_ORGANIZATION ( #157, #104, #58 ) ;
#85 = ORIENTED_EDGE ( 'NONE', *, *, #91, .T. ) ;
#86 = APPROVAL ( #61, 'UNSPECIFIED' ) ;
#87 = ADVANCED_FACE ( 'NONE', ( #164 ), #80, .F. ) ;
#88 = SHAPE_DEFINITION_REPRESENTATION ( #48, #144 ) ;
#89 = ADVANCED_FACE ( 'NONE', ( #78 ), #64, .T. ) ;
#90 = EDGE_LOOP ( 'NONE', ( #65, #85, #115, #28 ) ) ;
#91 = EDGE_CURVE ( 'NONE', #17, #52, #75, .T. ) ;
#92 = CALENDAR_DATE ( 2020, 3, 11 ) ;
#93 = CC_DESIGN_DATE_AND_TIME_ASSIGNMENT ( #99, #124, ( #41 ) ) ;
#94 = CARTESIAN_POINT ( 'NONE',  ( -10.00000000000000000, 1.224646799147353256E-15, 0.0000000000000000000 ) ) ;
#95 = DATE_AND_TIME ( #2, #37 ) ;
#96 = DIRECTION ( 'NONE',  ( 1.000000000000000000, 0.0000000000000000000, 0.0000000000000000000 ) ) ;
#97 = DIRECTION ( 'NONE',  ( 0.0000000000000000000, 0.0000000000000000000, 1.000000000000000000 ) ) ;
#98 = AXIS2_PLACEMENT_3D ( 'NONE', #161, #29, #26 ) ;
#99 = DATE_AND_TIME ( #16, #169 ) ;
#100 = PERSON ( 'UNSPECIFIED', 'UNSPECIFIED', 'UNSPECIFIED', ('UNSPECIFIED'), ('UNSPECIFIED'), ('UNSPECIFIED') ) ;
#101 = CALENDAR_DATE ( 2020, 3, 11 ) ;
#102 = CC_DESIGN_SECURITY_CLASSIFICATION ( #41, ( #154 ) ) ;
#103 = APPROVAL_DATE_TIME ( #40, #60 ) ;
#104 = APPROVAL ( #46, 'UNSPECIFIED' ) ;
#105 = VECTOR ( 'NONE', #151, 1000.000000000000000 ) ;
#106 = DIRECTION ( 'NONE',  ( 0.0000000000000000000, 0.0000000000000000000, 1.000000000000000000 ) ) ;
#107 = LINE ( 'NONE', #47, #105 ) ;
#108 =( GEOMETRIC_REPRESENTATION_CONTEXT ( 3 ) GLOBAL_UNCERTAINTY_ASSIGNED_CONTEXT ( ( #82 ) ) GLOBAL_UNIT_ASSIGNED_CONTEXT ( ( #4, #71, #33 ) ) REPRESENTATION_CONTEXT ( 'NONE', 'WORKASPACE' ) );
#109 = DIRECTION ( 'NONE',  ( 0.0000000000000000000, 0.0000000000000000000, 1.000000000000000000 ) ) ;
#110 = FACE_OUTER_BOUND ( 'NONE', #158, .T. ) ;
#111 = CARTESIAN_POINT ( 'NONE',  ( 0.0000000000000000000, 0.0000000000000000000, 0.0000000000000000000 ) ) ;
#112 = EDGE_CURVE ( 'NONE', #17, #22, #129, .T. ) ;
#113 = CARTESIAN_POINT ( 'NONE',  ( 0.0000000000000000000, 0.0000000000000000000, -3.000000000000000000 ) ) ;
#114 = ORIENTED_EDGE ( 'NONE', *, *, #112, .T. ) ;
#115 = ORIENTED_EDGE ( 'NONE', *, *, #122, .F. ) ;
#116 = APPLICATION_PROTOCOL_DEFINITION ( 'international standard', 'config_control_design', 1994, #168 ) ;
#117 = PRODUCT_RELATED_PRODUCT_CATEGORY ( 'detail', '', ( #34 ) ) ;
#118 = AXIS2_PLACEMENT_3D ( 'NONE', #148, #106, #27 ) ;
#119 = DATE_AND_TIME ( #152, #13 ) ;
#120 = EDGE_LOOP ( 'NONE', ( #155, #143 ) ) ;
#121 = AXIS2_PLACEMENT_3D ( 'NONE', #72, #20, #6 ) ;
#122 = EDGE_CURVE ( 'NONE', #145, #52, #42, .T. ) ;
#123 = DIRECTION ( 'NONE',  ( 0.0000000000000000000, 0.0000000000000000000, 1.000000000000000000 ) ) ;
#124 = DATE_TIME_ROLE ( 'classification_date' ) ;
#125 = CARTESIAN_POINT ( 'NONE',  ( 10.00000000000000000, 0.0000000000000000000, 0.0000000000000000000 ) ) ;
#126 = DATE_AND_TIME ( #101, #21 ) ;
#127 = PERSON_AND_ORGANIZATION_ROLE ( 'design_owner' ) ;
#128 = APPROVAL_PERSON_ORGANIZATION ( #172, #60, #167 ) ;
#129 = CIRCLE ( 'NONE', #130, 10.00000000000000000 ) ;
#130 = AXIS2_PLACEMENT_3D ( 'NONE', #113, #137, #96 ) ;
#131 = ORGANIZATION ( 'UNSPECIFIED', 'UNSPECIFIED', '' ) ;
#132 = CYLINDRICAL_SURFACE ( 'NONE', #141, 10.00000000000000000 ) ;
#133 = EDGE_CURVE ( 'NONE', #52, #145, #160, .T. ) ;
#134 = CARTESIAN_POINT ( 'NONE',  ( 0.0000000000000000000, 0.0000000000000000000, 0.0000000000000000000 ) ) ;
#135 = PERSON_AND_ORGANIZATION_ROLE ( 'creator' ) ;
#136 = PERSON_AND_ORGANIZATION ( #100, #131 ) ;
#137 = DIRECTION ( 'NONE',  ( 0.0000000000000000000, 0.0000000000000000000, 1.000000000000000000 ) ) ;
#138 = EDGE_CURVE ( 'NONE', #22, #145, #107, .T. ) ;
#139 = CARTESIAN_POINT ( 'NONE',  ( 0.0000000000000000000, 0.0000000000000000000, -3.000000000000000000 ) ) ;
#140 = PERSON_AND_ORGANIZATION ( #100, #131 ) ;
#141 = AXIS2_PLACEMENT_3D ( 'NONE', #79, #77, #1 ) ;
#142 = CC_DESIGN_APPROVAL ( #104, ( #41 ) ) ;
#143 = ORIENTED_EDGE ( 'NONE', *, *, #112, .F. ) ;
#144 = ADVANCED_BREP_SHAPE_REPRESENTATION ( 'Web Model 45577_13293', ( #147, #121 ), #108 ) ;
#145 = VERTEX_POINT ( 'NONE', #125 ) ;
#146 = AXIS2_PLACEMENT_3D ( 'NONE', #111, #97, #170 ) ;
#147 = MANIFOLD_SOLID_BREP ( 'Extrude1', #162 ) ;
#148 = CARTESIAN_POINT ( 'NONE',  ( 0.0000000000000000000, 0.0000000000000000000, -3.000000000000000000 ) ) ;
#149 = COORDINATED_UNIVERSAL_TIME_OFFSET ( 5, 0, .BEHIND. ) ;
#150 = PERSON_AND_ORGANIZATION_ROLE ( 'design_supplier' ) ;
#151 = DIRECTION ( 'NONE',  ( 0.0000000000000000000, 0.0000000000000000000, 1.000000000000000000 ) ) ;
#152 = CALENDAR_DATE ( 2020, 3, 11 ) ;
#153 = APPLICATION_PROTOCOL_DEFINITION ( 'international standard', 'config_control_design', 1994, #81 ) ;
#154 = PRODUCT_DEFINITION_FORMATION_WITH_SPECIFIED_SOURCE ( 'ANY', '', #34, .NOT_KNOWN. ) ;
#155 = ORIENTED_EDGE ( 'NONE', *, *, #159, .F. ) ;
#156 = APPROVAL_DATE_TIME ( #119, #104 ) ;
#157 = PERSON_AND_ORGANIZATION ( #100, #131 ) ;
#158 = EDGE_LOOP ( 'NONE', ( #3, #114, #76, #8 ) ) ;
#159 = EDGE_CURVE ( 'NONE', #22, #17, #49, .T. ) ;
#160 = CIRCLE ( 'NONE', #146, 10.00000000000000000 ) ;
#161 = CARTESIAN_POINT ( 'NONE',  ( 0.0000000000000000000, 0.0000000000000000000, -3.000000000000000000 ) ) ;
#162 = CLOSED_SHELL ( 'NONE', ( #89, #10, #87, #23 ) ) ;
#163 = CARTESIAN_POINT ( 'NONE',  ( 10.00000000000000000, 0.0000000000000000000, -3.000000000000000000 ) ) ;
#164 = FACE_OUTER_BOUND ( 'NONE', #120, .T. ) ;
#165 = DIRECTION ( 'NONE',  ( 1.000000000000000000, 0.0000000000000000000, -0.0000000000000000000 ) ) ;
#166 = APPROVAL_STATUS ( 'not_yet_approved' ) ;
#167 = APPROVAL_ROLE ( '' ) ;
#168 = APPLICATION_CONTEXT ( 'configuration controlled 3d designs of mechanical parts and assemblies' ) ;
#169 = LOCAL_TIME ( 16, 49, 30.00000000000000000, #173 ) ;
#170 = DIRECTION ( 'NONE',  ( 1.000000000000000000, 0.0000000000000000000, 0.0000000000000000000 ) ) ;
#171 = FACE_OUTER_BOUND ( 'NONE', #12, .T. ) ;
#172 = PERSON_AND_ORGANIZATION ( #100, #131 ) ;
#173 = COORDINATED_UNIVERSAL_TIME_OFFSET ( 5, 0, .BEHIND. ) ;
#174 = AXIS2_PLACEMENT_3D ( 'NONE', #134, #56, #165 ) ;
#175 = PERSON_AND_ORGANIZATION ( #100, #131 ) ;
ENDSEC;
END-ISO-10303-21;
