ISO-10303-21;
HEADER;
FILE_DESCRIPTION (( 'STEP AP203' ),
    '1' );
FILE_NAME ('Web Model 19837_19869.step',
    '2022-04-06T15:07:01',
    ( 'WC' ),
    ( 'Windows Central' ),
    'SwSTEP 2.0',
    'SolidWorks 2021',
    '' );
FILE_SCHEMA (( 'CONFIG_CONTROL_DESIGN' ));
ENDSEC;

DATA;
#1 = AXIS2_PLACEMENT_3D ( 'NONE', #157, #64, #85 ) ;
#2 = DIRECTION ( 'NONE',  ( 1.000000000000000000, 0.000000000000000000, -0.000000000000000000 ) ) ;
#3 = CARTESIAN_POINT ( 'NONE',  ( 0.000000000000000000, 0.000000000000000000, 5.000000000000000000 ) ) ;
#4 = APPROVAL_STATUS ( 'not_yet_approved' ) ;
#5 = APPLICATION_PROTOCOL_DEFINITION ( 'international standard', 'config_control_design', 1994, #65 ) ;
#6 = ORIENTED_EDGE ( 'NONE', *, *, #131, .T. ) ;
#7 = PERSON_AND_ORGANIZATION_ROLE ( 'design_owner' ) ;
#8 = DIRECTION ( 'NONE',  ( -1.000000000000000000, 0.000000000000000000, 0.000000000000000000 ) ) ;
#9 = DIRECTION ( 'NONE',  ( -0.000000000000000000, -0.000000000000000000, -1.000000000000000000 ) ) ;
#10 = APPLICATION_PROTOCOL_DEFINITION ( 'international standard', 'config_control_design', 1994, #24 ) ;
#11 = AXIS2_PLACEMENT_3D ( 'NONE', #124, #119, #135 ) ;
#12 = APPROVAL_PERSON_ORGANIZATION ( #56, #158, #139 ) ;
#13 = AXIS2_PLACEMENT_3D ( 'NONE', #130, #146, #150 ) ;
#14 = CC_DESIGN_PERSON_AND_ORGANIZATION_ASSIGNMENT ( #74, #21, ( #109 ) ) ;
#15 = LOCAL_TIME ( 11, 7, 1.000000000000000000, #125 ) ;
#16 = EDGE_LOOP ( 'NONE', ( #57, #71 ) ) ;
#17 = DIRECTION ( 'NONE',  ( 0.000000000000000000, 0.000000000000000000, 1.000000000000000000 ) ) ;
#18 = ORIENTED_EDGE ( 'NONE', *, *, #69, .F. ) ;
#19 = PERSON_AND_ORGANIZATION ( #148, #100 ) ;
#20 = APPROVAL_ROLE ( '' ) ;
#21 = PERSON_AND_ORGANIZATION_ROLE ( 'creator' ) ;
#22 = DIRECTION ( 'NONE',  ( 1.000000000000000000, 0.000000000000000000, -0.000000000000000000 ) ) ;
#23 = DATE_TIME_ROLE ( 'classification_date' ) ;
#24 = APPLICATION_CONTEXT ( 'configuration controlled 3d designs of mechanical parts and assemblies' ) ;
#25 = VERTEX_POINT ( 'NONE', #31 ) ;
#26 = VERTEX_POINT ( 'NONE', #70 ) ;
#27 = ORIENTED_EDGE ( 'NONE', *, *, #69, .T. ) ;
#28 = CIRCLE ( 'NONE', #1, 12.50000000000000000 ) ;
#29 = CC_DESIGN_PERSON_AND_ORGANIZATION_ASSIGNMENT ( #34, #7, ( #86 ) ) ;
#30 = DATE_AND_TIME ( #45, #166 ) ;
#31 = CARTESIAN_POINT ( 'NONE',  ( 12.50000000000000000, 1.530808498934191521E-15, 0.000000000000000000 ) ) ;
#32 = DATE_AND_TIME ( #164, #127 ) ;
#33 = CARTESIAN_POINT ( 'NONE',  ( 12.50000000000000000, 1.530808498934191521E-15, 5.000000000000000000 ) ) ;
#34 = PERSON_AND_ORGANIZATION ( #148, #100 ) ;
#35 = PLANE ( 'NONE',  #76 ) ;
#36 =( GEOMETRIC_REPRESENTATION_CONTEXT ( 3 ) GLOBAL_UNCERTAINTY_ASSIGNED_CONTEXT ( ( #98 ) ) GLOBAL_UNIT_ASSIGNED_CONTEXT ( ( #133, #105, #120 ) ) REPRESENTATION_CONTEXT ( 'NONE', 'WORKASPACE' ) );
#37 = CC_DESIGN_APPROVAL ( #43, ( #51 ) ) ;
#38 = ORIENTED_EDGE ( 'NONE', *, *, #131, .F. ) ;
#39 = CARTESIAN_POINT ( 'NONE',  ( -12.50000000000000000, 0.000000000000000000, 5.000000000000000000 ) ) ;
#40 = ORIENTED_EDGE ( 'NONE', *, *, #121, .F. ) ;
#41 = PERSON_AND_ORGANIZATION_ROLE ( 'design_supplier' ) ;
#42 = CARTESIAN_POINT ( 'NONE',  ( 0.000000000000000000, 0.000000000000000000, 0.000000000000000000 ) ) ;
#43 = APPROVAL ( #142, 'UNSPECIFIED' ) ;
#44 = COORDINATED_UNIVERSAL_TIME_OFFSET ( 5, 0, .BEHIND. ) ;
#45 = CALENDAR_DATE ( 2022, 6, 4 ) ;
#46 = CARTESIAN_POINT ( 'NONE',  ( 0.000000000000000000, 0.000000000000000000, 0.000000000000000000 ) ) ;
#47 = EDGE_CURVE ( 'NONE', #138, #26, #170, .T. ) ;
#48 = CARTESIAN_POINT ( 'NONE',  ( 0.000000000000000000, 0.000000000000000000, 5.000000000000000000 ) ) ;
#49 = MANIFOLD_SOLID_BREP ( 'Boss-Extrude1', #81 ) ;
#50 = VECTOR ( 'NONE', #91, 1000.000000000000000 ) ;
#51 = SECURITY_CLASSIFICATION ( '', '', #147 ) ;
#52 = PRODUCT_DEFINITION_FORMATION_WITH_SPECIFIED_SOURCE ( 'ANY', '', #86, .NOT_KNOWN. ) ;
#53 = APPROVAL_PERSON_ORGANIZATION ( #84, #54, #83 ) ;
#54 = APPROVAL ( #144, 'UNSPECIFIED' ) ;
#55 = AXIS2_PLACEMENT_3D ( 'NONE', #46, #59, #61 ) ;
#56 = PERSON_AND_ORGANIZATION ( #148, #100 ) ;
#57 = ORIENTED_EDGE ( 'NONE', *, *, #47, .T. ) ;
#58 = CALENDAR_DATE ( 2022, 6, 4 ) ;
#59 = DIRECTION ( 'NONE',  ( 0.000000000000000000, 0.000000000000000000, 1.000000000000000000 ) ) ;
#60 = DIRECTION ( 'NONE',  ( 0.000000000000000000, 0.000000000000000000, 1.000000000000000000 ) ) ;
#61 = DIRECTION ( 'NONE',  ( 1.000000000000000000, 0.000000000000000000, 0.000000000000000000 ) ) ;
#62 = CALENDAR_DATE ( 2022, 6, 4 ) ;
#63 = PRODUCT_DEFINITION_SHAPE ( 'NONE', 'NONE',  #109 ) ;
#64 = DIRECTION ( 'NONE',  ( 0.000000000000000000, 0.000000000000000000, 1.000000000000000000 ) ) ;
#65 = APPLICATION_CONTEXT ( 'configuration controlled 3d designs of mechanical parts and assemblies' ) ;
#66 = ADVANCED_FACE ( 'NONE', ( #155 ), #106, .T. ) ;
#67 = DIRECTION ( 'NONE',  ( -1.000000000000000000, 0.000000000000000000, 0.000000000000000000 ) ) ;
#68 = CC_DESIGN_PERSON_AND_ORGANIZATION_ASSIGNMENT ( #172, #114, ( #51 ) ) ;
#69 = EDGE_CURVE ( 'NONE', #138, #156, #167, .T. ) ;
#70 = CARTESIAN_POINT ( 'NONE',  ( 12.50000000000000000, 1.530808498934191521E-15, 5.000000000000000000 ) ) ;
#71 = ORIENTED_EDGE ( 'NONE', *, *, #121, .T. ) ;
#72 = PERSON_AND_ORGANIZATION_ROLE ( 'creator' ) ;
#73 = FACE_OUTER_BOUND ( 'NONE', #90, .T. ) ;
#74 = PERSON_AND_ORGANIZATION ( #148, #100 ) ;
#75 = DIRECTION ( 'NONE',  ( -0.000000000000000000, -0.000000000000000000, -1.000000000000000000 ) ) ;
#76 = AXIS2_PLACEMENT_3D ( 'NONE', #42, #161, #22 ) ;
#77 = CC_DESIGN_DATE_AND_TIME_ASSIGNMENT ( #171, #23, ( #51 ) ) ;
#78 = ORIENTED_EDGE ( 'NONE', *, *, #47, .F. ) ;
#79 = ORIENTED_EDGE ( 'NONE', *, *, #103, .T. ) ;
#80 = ORIENTED_EDGE ( 'NONE', *, *, #92, .F. ) ;
#81 = CLOSED_SHELL ( 'NONE', ( #154, #107, #66, #149 ) ) ;
#82 = DATE_TIME_ROLE ( 'creation_date' ) ;
#83 = APPROVAL_ROLE ( '' ) ;
#84 = PERSON_AND_ORGANIZATION ( #148, #100 ) ;
#85 = DIRECTION ( 'NONE',  ( 1.000000000000000000, 0.000000000000000000, 0.000000000000000000 ) ) ;
#86 = PRODUCT ( 'Web Model 19837_19869', 'Web Model 19837_19869', '', ( #160 ) ) ;
#87 = APPROVAL_DATE_TIME ( #32, #54 ) ;
#88 = CC_DESIGN_APPROVAL ( #158, ( #52 ) ) ;
#89 = FACE_OUTER_BOUND ( 'NONE', #140, .T. ) ;
#90 = EDGE_LOOP ( 'NONE', ( #95, #78, #27, #136 ) ) ;
#91 = DIRECTION ( 'NONE',  ( -0.000000000000000000, -0.000000000000000000, -1.000000000000000000 ) ) ;
#92 = EDGE_CURVE ( 'NONE', #156, #25, #28, .T. ) ;
#93 = APPROVAL_DATE_TIME ( #97, #158 ) ;
#94 = LOCAL_TIME ( 11, 7, 1.000000000000000000, #122 ) ;
#95 = ORIENTED_EDGE ( 'NONE', *, *, #103, .F. ) ;
#96 = FACE_OUTER_BOUND ( 'NONE', #118, .T. ) ;
#97 = DATE_AND_TIME ( #101, #132 ) ;
#98 = UNCERTAINTY_MEASURE_WITH_UNIT (LENGTH_MEASURE( 1.000000000000000082E-05 ), #133, 'distance_accuracy_value', 'NONE');
#99 = DATE_AND_TIME ( #58, #15 ) ;
#100 = ORGANIZATION ( 'UNSPECIFIED', 'UNSPECIFIED', '' ) ;
#101 = CALENDAR_DATE ( 2022, 6, 4 ) ;
#102 = CARTESIAN_POINT ( 'NONE',  ( -12.50000000000000000, 0.000000000000000000, 5.000000000000000000 ) ) ;
#103 = EDGE_CURVE ( 'NONE', #26, #25, #115, .T. ) ;
#104 = APPROVAL_PERSON_ORGANIZATION ( #113, #43, #20 ) ;
#105 =( NAMED_UNIT ( * ) PLANE_ANGLE_UNIT ( ) SI_UNIT ( $, .RADIAN. ) );
#106 = PLANE ( 'NONE',  #110 ) ;
#107 = ADVANCED_FACE ( 'NONE', ( #73 ), #143, .T. ) ;
#108 = CIRCLE ( 'NONE', #55, 12.50000000000000000 ) ;
#109 = PRODUCT_DEFINITION ( 'UNKNOWN', '', #52, #141 ) ;
#110 = AXIS2_PLACEMENT_3D ( 'NONE', #3, #17, #2 ) ;
#111 = CC_DESIGN_APPROVAL ( #54, ( #109 ) ) ;
#112 = APPROVAL_DATE_TIME ( #99, #43 ) ;
#113 = PERSON_AND_ORGANIZATION ( #148, #100 ) ;
#114 = PERSON_AND_ORGANIZATION_ROLE ( 'classification_officer' ) ;
#115 = LINE ( 'NONE', #33, #145 ) ;
#116 = AXIS2_PLACEMENT_3D ( 'NONE', #162, #60, #168 ) ;
#117 = CYLINDRICAL_SURFACE ( 'NONE', #151, 12.50000000000000000 ) ;
#118 = EDGE_LOOP ( 'NONE', ( #80, #38 ) ) ;
#119 = DIRECTION ( 'NONE',  ( 0.000000000000000000, 0.000000000000000000, 1.000000000000000000 ) ) ;
#120 =( NAMED_UNIT ( * ) SI_UNIT ( $, .STERADIAN. ) SOLID_ANGLE_UNIT ( ) );
#121 = EDGE_CURVE ( 'NONE', #26, #138, #153, .T. ) ;
#122 = COORDINATED_UNIVERSAL_TIME_OFFSET ( 5, 0, .BEHIND. ) ;
#123 = CC_DESIGN_PERSON_AND_ORGANIZATION_ASSIGNMENT ( #129, #72, ( #52 ) ) ;
#124 = CARTESIAN_POINT ( 'NONE',  ( 0.000000000000000000, 0.000000000000000000, 5.000000000000000000 ) ) ;
#125 = COORDINATED_UNIVERSAL_TIME_OFFSET ( 5, 0, .BEHIND. ) ;
#126 = CC_DESIGN_PERSON_AND_ORGANIZATION_ASSIGNMENT ( #19, #41, ( #52 ) ) ;
#127 = LOCAL_TIME ( 11, 7, 1.000000000000000000, #159 ) ;
#128 = SHAPE_DEFINITION_REPRESENTATION ( #63, #134 ) ;
#129 = PERSON_AND_ORGANIZATION ( #148, #100 ) ;
#130 = CARTESIAN_POINT ( 'NONE',  ( 0.000000000000000000, 0.000000000000000000, 5.000000000000000000 ) ) ;
#131 = EDGE_CURVE ( 'NONE', #25, #156, #108, .T. ) ;
#132 = LOCAL_TIME ( 11, 7, 1.000000000000000000, #44 ) ;
#133 =( LENGTH_UNIT ( ) NAMED_UNIT ( * ) SI_UNIT ( .MILLI., .METRE. ) );
#134 = ADVANCED_BREP_SHAPE_REPRESENTATION ( 'Web Model 19837_19869', ( #49, #116 ), #36 ) ;
#135 = DIRECTION ( 'NONE',  ( 1.000000000000000000, 0.000000000000000000, 0.000000000000000000 ) ) ;
#136 = ORIENTED_EDGE ( 'NONE', *, *, #92, .T. ) ;
#137 = CC_DESIGN_SECURITY_CLASSIFICATION ( #51, ( #52 ) ) ;
#138 = VERTEX_POINT ( 'NONE', #102 ) ;
#139 = APPROVAL_ROLE ( '' ) ;
#140 = EDGE_LOOP ( 'NONE', ( #40, #79, #6, #18 ) ) ;
#141 = DESIGN_CONTEXT ( 'detailed design', #65, 'design' ) ;
#142 = APPROVAL_STATUS ( 'not_yet_approved' ) ;
#143 = CYLINDRICAL_SURFACE ( 'NONE', #169, 12.50000000000000000 ) ;
#144 = APPROVAL_STATUS ( 'not_yet_approved' ) ;
#145 = VECTOR ( 'NONE', #9, 1000.000000000000000 ) ;
#146 = DIRECTION ( 'NONE',  ( 0.000000000000000000, 0.000000000000000000, 1.000000000000000000 ) ) ;
#147 = SECURITY_CLASSIFICATION_LEVEL ( 'unclassified' ) ;
#148 = PERSON ( 'UNSPECIFIED', 'UNSPECIFIED', 'UNSPECIFIED', ('UNSPECIFIED'), ('UNSPECIFIED'), ('UNSPECIFIED') ) ;
#149 = ADVANCED_FACE ( 'NONE', ( #96 ), #35, .F. ) ;
#150 = DIRECTION ( 'NONE',  ( 1.000000000000000000, 0.000000000000000000, 0.000000000000000000 ) ) ;
#151 = AXIS2_PLACEMENT_3D ( 'NONE', #48, #152, #67 ) ;
#152 = DIRECTION ( 'NONE',  ( -0.000000000000000000, -0.000000000000000000, -1.000000000000000000 ) ) ;
#153 = CIRCLE ( 'NONE', #13, 12.50000000000000000 ) ;
#154 = ADVANCED_FACE ( 'NONE', ( #89 ), #117, .T. ) ;
#155 = FACE_OUTER_BOUND ( 'NONE', #16, .T. ) ;
#156 = VERTEX_POINT ( 'NONE', #175 ) ;
#157 = CARTESIAN_POINT ( 'NONE',  ( 0.000000000000000000, 0.000000000000000000, 0.000000000000000000 ) ) ;
#158 = APPROVAL ( #4, 'UNSPECIFIED' ) ;
#159 = COORDINATED_UNIVERSAL_TIME_OFFSET ( 5, 0, .BEHIND. ) ;
#160 = MECHANICAL_CONTEXT ( 'NONE', #24, 'mechanical' ) ;
#161 = DIRECTION ( 'NONE',  ( 0.000000000000000000, 0.000000000000000000, 1.000000000000000000 ) ) ;
#162 = CARTESIAN_POINT ( 'NONE',  ( 0.000000000000000000, 0.000000000000000000, 0.000000000000000000 ) ) ;
#163 = COORDINATED_UNIVERSAL_TIME_OFFSET ( 5, 0, .BEHIND. ) ;
#164 = CALENDAR_DATE ( 2022, 6, 4 ) ;
#165 = CC_DESIGN_DATE_AND_TIME_ASSIGNMENT ( #30, #82, ( #109 ) ) ;
#166 = LOCAL_TIME ( 11, 7, 1.000000000000000000, #163 ) ;
#167 = LINE ( 'NONE', #39, #50 ) ;
#168 = DIRECTION ( 'NONE',  ( 1.000000000000000000, 0.000000000000000000, 0.000000000000000000 ) ) ;
#169 = AXIS2_PLACEMENT_3D ( 'NONE', #173, #75, #8 ) ;
#170 = CIRCLE ( 'NONE', #11, 12.50000000000000000 ) ;
#171 = DATE_AND_TIME ( #62, #94 ) ;
#172 = PERSON_AND_ORGANIZATION ( #148, #100 ) ;
#173 = CARTESIAN_POINT ( 'NONE',  ( 0.000000000000000000, 0.000000000000000000, 5.000000000000000000 ) ) ;
#174 = PRODUCT_RELATED_PRODUCT_CATEGORY ( 'detail', '', ( #86 ) ) ;
#175 = CARTESIAN_POINT ( 'NONE',  ( -12.50000000000000000, 0.000000000000000000, 0.000000000000000000 ) ) ;
ENDSEC;
END-ISO-10303-21;
