ISO-10303-21;
HEADER;
FILE_DESCRIPTION (( 'STEP AP203' ),
    '1' );
FILE_NAME ('Web Model 12315_12315.step',
    '2019-01-23T21:02:25',
    ( '' ),
    ( '' ),
    'SwSTEP 2.0',
    'SolidWorks 2016',
    '' );
FILE_SCHEMA (( 'CONFIG_CONTROL_DESIGN' ));
ENDSEC;

DATA;
#1 = PLANE ( 'NONE',  #158 ) ;
#2 = CALENDAR_DATE ( 2019, 23, 1 ) ;
#3 = VECTOR ( 'NONE', #43, 1000.000000000000000 ) ;
#4 = DIRECTION ( 'NONE',  ( -0.0000000000000000000, -0.0000000000000000000, -1.000000000000000000 ) ) ;
#5 = CARTESIAN_POINT ( 'NONE',  ( -38.09999999999999400, -12.69999999999999900, -0.05000000000000000300 ) ) ;
#6 = VECTOR ( 'NONE', #122, 1000.000000000000000 ) ;
#7 = LOCAL_TIME ( 16, 2, 25.00000000000000000, #150 ) ;
#8 = DIRECTION ( 'NONE',  ( 0.0000000000000000000, 1.000000000000000000, 0.0000000000000000000 ) ) ;
#9 = DIRECTION ( 'NONE',  ( 0.0000000000000000000, 0.0000000000000000000, 1.000000000000000000 ) ) ;
#10 = DIRECTION ( 'NONE',  ( -1.000000000000000000, -0.0000000000000000000, -0.0000000000000000000 ) ) ;
#11 = DIRECTION ( 'NONE',  ( -1.000000000000000000, 0.0000000000000000000, 0.0000000000000000000 ) ) ;
#12 = PERSON_AND_ORGANIZATION ( #203, #156 ) ;
#13 = EDGE_LOOP ( 'NONE', ( #70, #180, #206, #140 ) ) ;
#14 = CARTESIAN_POINT ( 'NONE',  ( 0.0000000000000000000, 0.0000000000000000000, -0.05000000000000000300 ) ) ;
#15 = CC_DESIGN_PERSON_AND_ORGANIZATION_ASSIGNMENT ( #12, #53, ( #205 ) ) ;
#16 = VERTEX_POINT ( 'NONE', #202 ) ;
#17 = PLANE ( 'NONE',  #162 ) ;
#18 = VECTOR ( 'NONE', #37, 1000.000000000000000 ) ;
#19 = DIRECTION ( 'NONE',  ( 0.0000000000000000000, 1.000000000000000000, 0.0000000000000000000 ) ) ;
#20 = ORIENTED_EDGE ( 'NONE', *, *, #194, .F. ) ;
#21 = AXIS2_PLACEMENT_3D ( 'NONE', #68, #9, #197 ) ;
#22 = VERTEX_POINT ( 'NONE', #237 ) ;
#23 =( NAMED_UNIT ( * ) PLANE_ANGLE_UNIT ( ) SI_UNIT ( $, .RADIAN. ) );
#24 = DIRECTION ( 'NONE',  ( 0.0000000000000000000, 0.0000000000000000000, -1.000000000000000000 ) ) ;
#25 = FACE_OUTER_BOUND ( 'NONE', #229, .T. ) ;
#26 = ORIENTED_EDGE ( 'NONE', *, *, #178, .T. ) ;
#27 = LINE ( 'NONE', #227, #3 ) ;
#28 = APPROVAL_STATUS ( 'not_yet_approved' ) ;
#29 = CC_DESIGN_PERSON_AND_ORGANIZATION_ASSIGNMENT ( #108, #183, ( #121 ) ) ;
#30 = DIRECTION ( 'NONE',  ( -1.000000000000000000, 0.0000000000000000000, -0.0000000000000000000 ) ) ;
#31 = EDGE_CURVE ( 'NONE', #22, #116, #188, .T. ) ;
#32 = ADVANCED_FACE ( 'NONE', ( #157 ), #219, .T. ) ;
#33 = DIRECTION ( 'NONE',  ( 1.000000000000000000, 0.0000000000000000000, 0.0000000000000000000 ) ) ;
#34 = EDGE_CURVE ( 'NONE', #218, #110, #69, .T. ) ;
#35 = PERSON_AND_ORGANIZATION ( #203, #156 ) ;
#36 = ORIENTED_EDGE ( 'NONE', *, *, #60, .F. ) ;
#37 = DIRECTION ( 'NONE',  ( -0.0000000000000000000, -0.0000000000000000000, -1.000000000000000000 ) ) ;
#38 = CARTESIAN_POINT ( 'NONE',  ( -38.09999999999999400, 12.69999999999999900, 0.05000000000000000300 ) ) ;
#39 = DATE_AND_TIME ( #209, #80 ) ;
#40 = PRODUCT_RELATED_PRODUCT_CATEGORY ( 'detail', '', ( #181 ) ) ;
#41 = LINE ( 'NONE', #137, #217 ) ;
#42 = ORIENTED_EDGE ( 'NONE', *, *, #112, .T. ) ;
#43 = DIRECTION ( 'NONE',  ( 0.0000000000000000000, 1.000000000000000000, 0.0000000000000000000 ) ) ;
#44 = PLANE ( 'NONE',  #153 ) ;
#45 = VECTOR ( 'NONE', #4, 1000.000000000000000 ) ;
#46 = CC_DESIGN_DATE_AND_TIME_ASSIGNMENT ( #73, #220, ( #77 ) ) ;
#47 = EDGE_CURVE ( 'NONE', #116, #211, #232, .T. ) ;
#48 = PLANE ( 'NONE',  #131 ) ;
#49 = PERSON_AND_ORGANIZATION_ROLE ( 'design_supplier' ) ;
#50 = COORDINATED_UNIVERSAL_TIME_OFFSET ( 5, 0, .BEHIND. ) ;
#51 = APPLICATION_PROTOCOL_DEFINITION ( 'international standard', 'config_control_design', 1994, #233 ) ;
#52 = MANIFOLD_SOLID_BREP ( 'Boss-Extrude1', #59 ) ;
#53 = PERSON_AND_ORGANIZATION_ROLE ( 'creator' ) ;
#54 = ADVANCED_FACE ( 'NONE', ( #103 ), #17, .F. ) ;
#55 = LINE ( 'NONE', #214, #225 ) ;
#56 = EDGE_LOOP ( 'NONE', ( #62, #36, #189, #130 ) ) ;
#57 = APPROVAL ( #161, 'UNSPECIFIED' ) ;
#58 = CARTESIAN_POINT ( 'NONE',  ( 38.10000000000000900, -12.69999999999999900, -0.05000000000000000300 ) ) ;
#59 = CLOSED_SHELL ( 'NONE', ( #187, #111, #54, #72, #222, #32 ) ) ;
#60 = EDGE_CURVE ( 'NONE', #110, #116, #223, .T. ) ;
#61 = LOCAL_TIME ( 16, 2, 25.00000000000000000, #129 ) ;
#62 = ORIENTED_EDGE ( 'NONE', *, *, #47, .F. ) ;
#63 = CARTESIAN_POINT ( 'NONE',  ( 38.10000000000000900, 12.69999999999999900, 0.05000000000000000300 ) ) ;
#64 = CC_DESIGN_PERSON_AND_ORGANIZATION_ASSIGNMENT ( #166, #49, ( #121 ) ) ;
#65 = CARTESIAN_POINT ( 'NONE',  ( -38.09999999999999400, -12.69999999999999900, 0.05000000000000000300 ) ) ;
#66 = CARTESIAN_POINT ( 'NONE',  ( -38.09999999999999400, 12.69999999999999900, -0.05000000000000000300 ) ) ;
#67 = LOCAL_TIME ( 16, 2, 25.00000000000000000, #145 ) ;
#68 = CARTESIAN_POINT ( 'NONE',  ( 0.0000000000000000000, 0.0000000000000000000, 0.0000000000000000000 ) ) ;
#69 = LINE ( 'NONE', #92, #18 ) ;
#70 = ORIENTED_EDGE ( 'NONE', *, *, #124, .T. ) ;
#71 = ADVANCED_BREP_SHAPE_REPRESENTATION ( 'Web Model 12315_12315', ( #52, #21 ), #174 ) ;
#72 = ADVANCED_FACE ( 'NONE', ( #25 ), #1, .F. ) ;
#73 = DATE_AND_TIME ( #169, #143 ) ;
#74 = AXIS2_PLACEMENT_3D ( 'NONE', #168, #81, #208 ) ;
#75 = ORIENTED_EDGE ( 'NONE', *, *, #148, .T. ) ;
#76 = APPROVAL_ROLE ( '' ) ;
#77 = SECURITY_CLASSIFICATION ( '', '', #200 ) ;
#78 = VECTOR ( 'NONE', #99, 1000.000000000000000 ) ;
#79 = ORIENTED_EDGE ( 'NONE', *, *, #34, .T. ) ;
#80 = LOCAL_TIME ( 16, 2, 25.00000000000000000, #50 ) ;
#81 = DIRECTION ( 'NONE',  ( 0.0000000000000000000, -1.000000000000000000, 0.0000000000000000000 ) ) ;
#82 = APPROVAL_PERSON_ORGANIZATION ( #117, #105, #76 ) ;
#83 = VECTOR ( 'NONE', #115, 1000.000000000000000 ) ;
#84 = CC_DESIGN_DATE_AND_TIME_ASSIGNMENT ( #144, #177, ( #205 ) ) ;
#85 = APPROVAL_DATE_TIME ( #195, #57 ) ;
#86 = ORIENTED_EDGE ( 'NONE', *, *, #31, .F. ) ;
#87 = CARTESIAN_POINT ( 'NONE',  ( -38.09999999999999400, 12.69999999999999900, 0.05000000000000000300 ) ) ;
#88 = FACE_OUTER_BOUND ( 'NONE', #13, .T. ) ;
#89 = MECHANICAL_CONTEXT ( 'NONE', #155, 'mechanical' ) ;
#90 = CC_DESIGN_PERSON_AND_ORGANIZATION_ASSIGNMENT ( #109, #216, ( #181 ) ) ;
#91 = VECTOR ( 'NONE', #10, 1000.000000000000000 ) ;
#92 = CARTESIAN_POINT ( 'NONE',  ( -38.09999999999999400, -12.69999999999999900, 0.05000000000000000300 ) ) ;
#93 = CARTESIAN_POINT ( 'NONE',  ( -38.09999999999999400, -12.69999999999999900, 0.05000000000000000300 ) ) ;
#94 = EDGE_LOOP ( 'NONE', ( #75, #167, #26, #201 ) ) ;
#95 = DIRECTION ( 'NONE',  ( 0.0000000000000000000, -0.0000000000000000000, 1.000000000000000000 ) ) ;
#96 = DATE_AND_TIME ( #2, #67 ) ;
#97 = PERSON_AND_ORGANIZATION ( #203, #156 ) ;
#98 = DIRECTION ( 'NONE',  ( -0.0000000000000000000, -1.000000000000000000, -0.0000000000000000000 ) ) ;
#99 = DIRECTION ( 'NONE',  ( -0.0000000000000000000, -0.0000000000000000000, -1.000000000000000000 ) ) ;
#100 = DIRECTION ( 'NONE',  ( 0.0000000000000000000, 0.0000000000000000000, 1.000000000000000000 ) ) ;
#101 = DIRECTION ( 'NONE',  ( -1.000000000000000000, 0.0000000000000000000, -0.0000000000000000000 ) ) ;
#102 = CARTESIAN_POINT ( 'NONE',  ( 38.10000000000000900, 12.69999999999999900, -0.05000000000000000300 ) ) ;
#103 = FACE_OUTER_BOUND ( 'NONE', #221, .T. ) ;
#104 = ORIENTED_EDGE ( 'NONE', *, *, #148, .F. ) ;
#105 = APPROVAL ( #182, 'UNSPECIFIED' ) ;
#106 = APPROVAL_ROLE ( '' ) ;
#107 = CC_DESIGN_APPROVAL ( #105, ( #77 ) ) ;
#108 = PERSON_AND_ORGANIZATION ( #203, #156 ) ;
#109 = PERSON_AND_ORGANIZATION ( #203, #156 ) ;
#110 = VERTEX_POINT ( 'NONE', #5 ) ;
#111 = ADVANCED_FACE ( 'NONE', ( #88 ), #114, .F. ) ;
#112 = EDGE_CURVE ( 'NONE', #16, #151, #141, .T. ) ;
#113 = ORIENTED_EDGE ( 'NONE', *, *, #176, .F. ) ;
#114 = PLANE ( 'NONE',  #74 ) ;
#115 = DIRECTION ( 'NONE',  ( 1.000000000000000000, 0.0000000000000000000, 0.0000000000000000000 ) ) ;
#116 = VERTEX_POINT ( 'NONE', #172 ) ;
#117 = PERSON_AND_ORGANIZATION ( #203, #156 ) ;
#118 = ORIENTED_EDGE ( 'NONE', *, *, #31, .T. ) ;
#119 = CARTESIAN_POINT ( 'NONE',  ( -38.09999999999999400, -12.69999999999999900, 0.05000000000000000300 ) ) ;
#120 = DIRECTION ( 'NONE',  ( 1.000000000000000000, 0.0000000000000000000, 0.0000000000000000000 ) ) ;
#121 = PRODUCT_DEFINITION_FORMATION_WITH_SPECIFIED_SOURCE ( 'ANY', '', #181, .NOT_KNOWN. ) ;
#122 = DIRECTION ( 'NONE',  ( -1.000000000000000000, -0.0000000000000000000, -0.0000000000000000000 ) ) ;
#123 =( LENGTH_UNIT ( ) NAMED_UNIT ( * ) SI_UNIT ( .MILLI., .METRE. ) );
#124 = EDGE_CURVE ( 'NONE', #211, #151, #210, .T. ) ;
#125 = APPROVAL_PERSON_ORGANIZATION ( #97, #160, #235 ) ;
#126 = CC_DESIGN_APPROVAL ( #57, ( #205 ) ) ;
#127 = FACE_OUTER_BOUND ( 'NONE', #94, .T. ) ;
#128 = CC_DESIGN_SECURITY_CLASSIFICATION ( #77, ( #121 ) ) ;
#129 = COORDINATED_UNIVERSAL_TIME_OFFSET ( 5, 0, .BEHIND. ) ;
#130 = ORIENTED_EDGE ( 'NONE', *, *, #124, .F. ) ;
#131 = AXIS2_PLACEMENT_3D ( 'NONE', #212, #24, #101 ) ;
#132 = CC_DESIGN_APPROVAL ( #160, ( #121 ) ) ;
#133 = SHAPE_DEFINITION_REPRESENTATION ( #163, #71 ) ;
#134 = AXIS2_PLACEMENT_3D ( 'NONE', #14, #165, #30 ) ;
#135 = VERTEX_POINT ( 'NONE', #193 ) ;
#136 = DESIGN_CONTEXT ( 'detailed design', #233, 'design' ) ;
#137 = CARTESIAN_POINT ( 'NONE',  ( -38.09999999999999400, -12.69999999999999900, -0.05000000000000000300 ) ) ;
#138 = DIRECTION ( 'NONE',  ( -0.0000000000000000000, -1.000000000000000000, -0.0000000000000000000 ) ) ;
#139 = LINE ( 'NONE', #63, #179 ) ;
#140 = ORIENTED_EDGE ( 'NONE', *, *, #176, .T. ) ;
#141 = LINE ( 'NONE', #38, #78 ) ;
#142 = DIRECTION ( 'NONE',  ( 0.0000000000000000000, 0.0000000000000000000, -1.000000000000000000 ) ) ;
#143 = LOCAL_TIME ( 16, 2, 25.00000000000000000, #173 ) ;
#144 = DATE_AND_TIME ( #199, #7 ) ;
#145 = COORDINATED_UNIVERSAL_TIME_OFFSET ( 5, 0, .BEHIND. ) ;
#146 = CARTESIAN_POINT ( 'NONE',  ( -38.09999999999999400, -12.69999999999999900, -0.05000000000000000300 ) ) ;
#147 = CARTESIAN_POINT ( 'NONE',  ( -38.09999999999999400, 12.69999999999999900, -0.05000000000000000300 ) ) ;
#148 = EDGE_CURVE ( 'NONE', #22, #135, #27, .T. ) ;
#149 = CARTESIAN_POINT ( 'NONE',  ( -38.09999999999999400, -12.69999999999999900, 0.05000000000000000300 ) ) ;
#150 = COORDINATED_UNIVERSAL_TIME_OFFSET ( 5, 0, .BEHIND. ) ;
#151 = VERTEX_POINT ( 'NONE', #66 ) ;
#152 = APPROVAL_DATE_TIME ( #96, #105 ) ;
#153 = AXIS2_PLACEMENT_3D ( 'NONE', #171, #11, #100 ) ;
#154 = ORIENTED_EDGE ( 'NONE', *, *, #178, .F. ) ;
#155 = APPLICATION_CONTEXT ( 'configuration controlled 3d designs of mechanical parts and assemblies' ) ;
#156 = ORGANIZATION ( 'UNSPECIFIED', 'UNSPECIFIED', '' ) ;
#157 = FACE_OUTER_BOUND ( 'NONE', #56, .T. ) ;
#158 = AXIS2_PLACEMENT_3D ( 'NONE', #149, #8, #95 ) ;
#159 = ORIENTED_EDGE ( 'NONE', *, *, #60, .T. ) ;
#160 = APPROVAL ( #28, 'UNSPECIFIED' ) ;
#161 = APPROVAL_STATUS ( 'not_yet_approved' ) ;
#162 = AXIS2_PLACEMENT_3D ( 'NONE', #93, #33, #142 ) ;
#163 = PRODUCT_DEFINITION_SHAPE ( 'NONE', 'NONE',  #205 ) ;
#164 = EDGE_LOOP ( 'NONE', ( #192, #113, #104, #118 ) ) ;
#165 = DIRECTION ( 'NONE',  ( 0.0000000000000000000, 0.0000000000000000000, -1.000000000000000000 ) ) ;
#166 = PERSON_AND_ORGANIZATION ( #203, #156 ) ;
#167 = ORIENTED_EDGE ( 'NONE', *, *, #196, .T. ) ;
#168 = CARTESIAN_POINT ( 'NONE',  ( -38.09999999999999400, 12.69999999999999900, 0.05000000000000000300 ) ) ;
#169 = CALENDAR_DATE ( 2019, 23, 1 ) ;
#170 = CALENDAR_DATE ( 2019, 23, 1 ) ;
#171 = CARTESIAN_POINT ( 'NONE',  ( 38.10000000000000900, -12.69999999999999900, 0.05000000000000000300 ) ) ;
#172 = CARTESIAN_POINT ( 'NONE',  ( 38.10000000000000900, -12.69999999999999900, -0.05000000000000000300 ) ) ;
#173 = COORDINATED_UNIVERSAL_TIME_OFFSET ( 5, 0, .BEHIND. ) ;
#174 =( GEOMETRIC_REPRESENTATION_CONTEXT ( 3 ) GLOBAL_UNCERTAINTY_ASSIGNED_CONTEXT ( ( #184 ) ) GLOBAL_UNIT_ASSIGNED_CONTEXT ( ( #123, #23, #231 ) ) REPRESENTATION_CONTEXT ( 'NONE', 'WORKASPACE' ) );
#175 = APPLICATION_PROTOCOL_DEFINITION ( 'international standard', 'config_control_design', 1994, #155 ) ;
#176 = EDGE_CURVE ( 'NONE', #135, #211, #139, .T. ) ;
#177 = DATE_TIME_ROLE ( 'creation_date' ) ;
#178 = EDGE_CURVE ( 'NONE', #16, #218, #226, .T. ) ;
#179 = VECTOR ( 'NONE', #215, 1000.000000000000000 ) ;
#180 = ORIENTED_EDGE ( 'NONE', *, *, #112, .F. ) ;
#181 = PRODUCT ( 'Web Model 12315_12315', 'Web Model 12315_12315', '', ( #89 ) ) ;
#182 = APPROVAL_STATUS ( 'not_yet_approved' ) ;
#183 = PERSON_AND_ORGANIZATION_ROLE ( 'creator' ) ;
#184 = UNCERTAINTY_MEASURE_WITH_UNIT (LENGTH_MEASURE( 1.000000000000000100E-005 ), #123, 'distance_accuracy_value', 'NONE');
#185 = PERSON_AND_ORGANIZATION ( #203, #156 ) ;
#186 = LINE ( 'NONE', #87, #91 ) ;
#187 = ADVANCED_FACE ( 'NONE', ( #191 ), #44, .F. ) ;
#188 = LINE ( 'NONE', #190, #45 ) ;
#189 = ORIENTED_EDGE ( 'NONE', *, *, #207, .F. ) ;
#190 = CARTESIAN_POINT ( 'NONE',  ( 38.10000000000000900, -12.69999999999999900, 0.05000000000000000300 ) ) ;
#191 = FACE_OUTER_BOUND ( 'NONE', #164, .T. ) ;
#192 = ORIENTED_EDGE ( 'NONE', *, *, #47, .T. ) ;
#193 = CARTESIAN_POINT ( 'NONE',  ( 38.10000000000000900, 12.69999999999999900, 0.05000000000000000300 ) ) ;
#194 = EDGE_CURVE ( 'NONE', #218, #22, #55, .T. ) ;
#195 = DATE_AND_TIME ( #170, #61 ) ;
#196 = EDGE_CURVE ( 'NONE', #135, #16, #186, .T. ) ;
#197 = DIRECTION ( 'NONE',  ( 1.000000000000000000, 0.0000000000000000000, 0.0000000000000000000 ) ) ;
#198 = APPROVAL_DATE_TIME ( #39, #160 ) ;
#199 = CALENDAR_DATE ( 2019, 23, 1 ) ;
#200 = SECURITY_CLASSIFICATION_LEVEL ( 'unclassified' ) ;
#201 = ORIENTED_EDGE ( 'NONE', *, *, #194, .T. ) ;
#202 = CARTESIAN_POINT ( 'NONE',  ( -38.09999999999999400, 12.69999999999999900, 0.05000000000000000300 ) ) ;
#203 = PERSON ( 'UNSPECIFIED', 'UNSPECIFIED', 'UNSPECIFIED', ('UNSPECIFIED'), ('UNSPECIFIED'), ('UNSPECIFIED') ) ;
#204 = VECTOR ( 'NONE', #98, 1000.000000000000000 ) ;
#205 = PRODUCT_DEFINITION ( 'UNKNOWN', '', #121, #136 ) ;
#206 = ORIENTED_EDGE ( 'NONE', *, *, #196, .F. ) ;
#207 = EDGE_CURVE ( 'NONE', #151, #110, #41, .T. ) ;
#208 = DIRECTION ( 'NONE',  ( 0.0000000000000000000, -0.0000000000000000000, -1.000000000000000000 ) ) ;
#209 = CALENDAR_DATE ( 2019, 23, 1 ) ;
#210 = LINE ( 'NONE', #147, #6 ) ;
#211 = VERTEX_POINT ( 'NONE', #102 ) ;
#212 = CARTESIAN_POINT ( 'NONE',  ( 0.0000000000000000000, 0.0000000000000000000, 0.05000000000000000300 ) ) ;
#213 = ORIENTED_EDGE ( 'NONE', *, *, #207, .T. ) ;
#214 = CARTESIAN_POINT ( 'NONE',  ( -38.09999999999999400, -12.69999999999999900, 0.05000000000000000300 ) ) ;
#215 = DIRECTION ( 'NONE',  ( -0.0000000000000000000, -0.0000000000000000000, -1.000000000000000000 ) ) ;
#216 = PERSON_AND_ORGANIZATION_ROLE ( 'design_owner' ) ;
#217 = VECTOR ( 'NONE', #138, 1000.000000000000000 ) ;
#218 = VERTEX_POINT ( 'NONE', #119 ) ;
#219 = PLANE ( 'NONE',  #134 ) ;
#220 = DATE_TIME_ROLE ( 'classification_date' ) ;
#221 = EDGE_LOOP ( 'NONE', ( #213, #224, #154, #42 ) ) ;
#222 = ADVANCED_FACE ( 'NONE', ( #127 ), #48, .F. ) ;
#223 = LINE ( 'NONE', #146, #83 ) ;
#224 = ORIENTED_EDGE ( 'NONE', *, *, #34, .F. ) ;
#225 = VECTOR ( 'NONE', #120, 1000.000000000000000 ) ;
#226 = LINE ( 'NONE', #65, #204 ) ;
#227 = CARTESIAN_POINT ( 'NONE',  ( 38.10000000000000900, -12.69999999999999900, 0.05000000000000000300 ) ) ;
#228 = APPROVAL_PERSON_ORGANIZATION ( #35, #57, #106 ) ;
#229 = EDGE_LOOP ( 'NONE', ( #159, #86, #20, #79 ) ) ;
#230 = CC_DESIGN_PERSON_AND_ORGANIZATION_ASSIGNMENT ( #185, #234, ( #77 ) ) ;
#231 =( NAMED_UNIT ( * ) SI_UNIT ( $, .STERADIAN. ) SOLID_ANGLE_UNIT ( ) );
#232 = LINE ( 'NONE', #58, #236 ) ;
#233 = APPLICATION_CONTEXT ( 'configuration controlled 3d designs of mechanical parts and assemblies' ) ;
#234 = PERSON_AND_ORGANIZATION_ROLE ( 'classification_officer' ) ;
#235 = APPROVAL_ROLE ( '' ) ;
#236 = VECTOR ( 'NONE', #19, 1000.000000000000000 ) ;
#237 = CARTESIAN_POINT ( 'NONE',  ( 38.10000000000000900, -12.69999999999999900, 0.05000000000000000300 ) ) ;
ENDSEC;
END-ISO-10303-21;
