ISO-10303-21;
HEADER;
FILE_DESCRIPTION (( 'STEP AP203' ),
    '1' );
FILE_NAME ('Web Model 84453_48065.step',
    '2017-04-03T16:46:23',
    ( '' ),
    ( '' ),
    'SwSTEP 2.0',
    'SolidWorks 2016',
    '' );
FILE_SCHEMA (( 'CONFIG_CONTROL_DESIGN' ));
ENDSEC;

DATA;
#1 = LINE ( 'NONE', #127, #70 ) ;
#2 = APPROVAL_DATE_TIME ( #79, #101 ) ;
#3 = EDGE_CURVE ( 'NONE', #33, #91, #122, .T. ) ;
#4 = VERTEX_POINT ( 'NONE', #50 ) ;
#5 = PERSON_AND_ORGANIZATION ( #29, #24 ) ;
#6 = ORIENTED_EDGE ( 'NONE', *, *, #74, .F. ) ;
#7 = APPROVAL_DATE_TIME ( #83, #10 ) ;
#8 = SECURITY_CLASSIFICATION_LEVEL ( 'unclassified' ) ;
#9 = CC_DESIGN_APPROVAL ( #101, ( #28 ) ) ;
#10 = APPROVAL ( #118, 'UNSPECIFIED' ) ;
#11 = FACE_OUTER_BOUND ( 'NONE', #44, .T. ) ;
#12 = ADVANCED_FACE ( 'NONE', ( #11 ), #36, .T. ) ;
#13 = APPROVAL_ROLE ( '' ) ;
#14 = CARTESIAN_POINT ( 'NONE',  ( 7.500000000000000000, 0.0000000000000000000, -2.000000000000000000 ) ) ;
#15 = CC_DESIGN_PERSON_AND_ORGANIZATION_ASSIGNMENT ( #126, #175, ( #38 ) ) ;
#16 = DIRECTION ( 'NONE',  ( 0.0000000000000000000, 0.0000000000000000000, 1.000000000000000000 ) ) ;
#17 = DIRECTION ( 'NONE',  ( 1.000000000000000000, 0.0000000000000000000, 0.0000000000000000000 ) ) ;
#18 = CARTESIAN_POINT ( 'NONE',  ( 0.0000000000000000000, 0.0000000000000000000, -2.000000000000000000 ) ) ;
#19 = CALENDAR_DATE ( 2017, 3, 4 ) ;
#20 = ORIENTED_EDGE ( 'NONE', *, *, #131, .T. ) ;
#21 = DIRECTION ( 'NONE',  ( 0.0000000000000000000, 0.0000000000000000000, 1.000000000000000000 ) ) ;
#22 = DATE_AND_TIME ( #97, #160 ) ;
#23 = ADVANCED_FACE ( 'NONE', ( #149 ), #108, .T. ) ;
#24 = ORGANIZATION ( 'UNSPECIFIED', 'UNSPECIFIED', '' ) ;
#25 = ORIENTED_EDGE ( 'NONE', *, *, #31, .F. ) ;
#26 = CIRCLE ( 'NONE', #121, 7.500000000000000000 ) ;
#27 = ADVANCED_FACE ( 'NONE', ( #168 ), #73, .T. ) ;
#28 = SECURITY_CLASSIFICATION ( '', '', #8 ) ;
#29 = PERSON ( 'UNSPECIFIED', 'UNSPECIFIED', 'UNSPECIFIED', ('UNSPECIFIED'), ('UNSPECIFIED'), ('UNSPECIFIED') ) ;
#30 = LOCAL_TIME ( 12, 46, 23.00000000000000000, #107 ) ;
#31 = EDGE_CURVE ( 'NONE', #91, #4, #82, .T. ) ;
#32 = DIRECTION ( 'NONE',  ( 1.000000000000000000, 0.0000000000000000000, 0.0000000000000000000 ) ) ;
#33 = VERTEX_POINT ( 'NONE', #139 ) ;
#34 = CALENDAR_DATE ( 2017, 3, 4 ) ;
#35 = AXIS2_PLACEMENT_3D ( 'NONE', #125, #92, #56 ) ;
#36 = CYLINDRICAL_SURFACE ( 'NONE', #145, 7.500000000000000000 ) ;
#37 = LOCAL_TIME ( 12, 46, 23.00000000000000000, #113 ) ;
#38 = PRODUCT_DEFINITION ( 'UNKNOWN', '', #172, #148 ) ;
#39 = CC_DESIGN_APPROVAL ( #10, ( #38 ) ) ;
#40 = ORIENTED_EDGE ( 'NONE', *, *, #63, .T. ) ;
#41 = PRODUCT_RELATED_PRODUCT_CATEGORY ( 'detail', '', ( #42 ) ) ;
#42 = PRODUCT ( 'Web Model 84453_48065', 'Web Model 84453_48065', '', ( #166 ) ) ;
#43 = PERSON_AND_ORGANIZATION_ROLE ( 'design_owner' ) ;
#44 = EDGE_LOOP ( 'NONE', ( #104, #115, #77, #25 ) ) ;
#45 = APPROVAL_ROLE ( '' ) ;
#46 = CARTESIAN_POINT ( 'NONE',  ( 0.0000000000000000000, 0.0000000000000000000, 0.0000000000000000000 ) ) ;
#47 = DIRECTION ( 'NONE',  ( 0.0000000000000000000, 0.0000000000000000000, 1.000000000000000000 ) ) ;
#48 = PERSON_AND_ORGANIZATION ( #29, #24 ) ;
#49 = CARTESIAN_POINT ( 'NONE',  ( 0.0000000000000000000, 0.0000000000000000000, 0.0000000000000000000 ) ) ;
#50 = CARTESIAN_POINT ( 'NONE',  ( 7.500000000000000000, 0.0000000000000000000, 0.0000000000000000000 ) ) ;
#51 = ORIENTED_EDGE ( 'NONE', *, *, #94, .F. ) ;
#52 = COORDINATED_UNIVERSAL_TIME_OFFSET ( 5, 0, .BEHIND. ) ;
#53 = ADVANCED_BREP_SHAPE_REPRESENTATION ( 'Web Model 84453_48065', ( #165, #116 ), #114 ) ;
#54 = CC_DESIGN_PERSON_AND_ORGANIZATION_ASSIGNMENT ( #5, #106, ( #172 ) ) ;
#55 = AXIS2_PLACEMENT_3D ( 'NONE', #103, #89, #111 ) ;
#56 = DIRECTION ( 'NONE',  ( 1.000000000000000000, 0.0000000000000000000, 0.0000000000000000000 ) ) ;
#57 = CC_DESIGN_SECURITY_CLASSIFICATION ( #28, ( #172 ) ) ;
#58 = AXIS2_PLACEMENT_3D ( 'NONE', #18, #140, #130 ) ;
#59 = SHAPE_DEFINITION_REPRESENTATION ( #142, #53 ) ;
#60 = APPLICATION_CONTEXT ( 'configuration controlled 3d designs of mechanical parts and assemblies' ) ;
#61 = APPROVAL_ROLE ( '' ) ;
#62 = PERSON_AND_ORGANIZATION ( #29, #24 ) ;
#63 = EDGE_CURVE ( 'NONE', #4, #129, #96, .T. ) ;
#64 = CC_DESIGN_DATE_AND_TIME_ASSIGNMENT ( #133, #80, ( #28 ) ) ;
#65 = ORIENTED_EDGE ( 'NONE', *, *, #31, .T. ) ;
#66 = APPROVAL_PERSON_ORGANIZATION ( #136, #167, #45 ) ;
#67 = PERSON_AND_ORGANIZATION ( #29, #24 ) ;
#68 = PLANE ( 'NONE',  #170 ) ;
#69 = DIRECTION ( 'NONE',  ( 0.0000000000000000000, 0.0000000000000000000, 1.000000000000000000 ) ) ;
#70 = VECTOR ( 'NONE', #76, 1000.000000000000000 ) ;
#71 = CARTESIAN_POINT ( 'NONE',  ( 7.500000000000000000, 0.0000000000000000000, -2.000000000000000000 ) ) ;
#72 = UNCERTAINTY_MEASURE_WITH_UNIT (LENGTH_MEASURE( 1.000000000000000100E-005 ), #84, 'distance_accuracy_value', 'NONE');
#73 = PLANE ( 'NONE',  #55 ) ;
#74 = EDGE_CURVE ( 'NONE', #91, #33, #155, .T. ) ;
#75 = EDGE_LOOP ( 'NONE', ( #40, #20 ) ) ;
#76 = DIRECTION ( 'NONE',  ( 0.0000000000000000000, 0.0000000000000000000, 1.000000000000000000 ) ) ;
#77 = ORIENTED_EDGE ( 'NONE', *, *, #63, .F. ) ;
#78 =( NAMED_UNIT ( * ) SI_UNIT ( $, .STERADIAN. ) SOLID_ANGLE_UNIT ( ) );
#79 = DATE_AND_TIME ( #144, #30 ) ;
#80 = DATE_TIME_ROLE ( 'classification_date' ) ;
#81 = APPROVAL_DATE_TIME ( #146, #167 ) ;
#82 = LINE ( 'NONE', #71, #143 ) ;
#83 = DATE_AND_TIME ( #150, #37 ) ;
#84 =( LENGTH_UNIT ( ) NAMED_UNIT ( * ) SI_UNIT ( .MILLI., .METRE. ) );
#85 = CC_DESIGN_APPROVAL ( #167, ( #172 ) ) ;
#86 = CARTESIAN_POINT ( 'NONE',  ( 0.0000000000000000000, 0.0000000000000000000, 0.0000000000000000000 ) ) ;
#87 = DIRECTION ( 'NONE',  ( 0.0000000000000000000, 0.0000000000000000000, 1.000000000000000000 ) ) ;
#88 = PERSON_AND_ORGANIZATION_ROLE ( 'design_supplier' ) ;
#89 = DIRECTION ( 'NONE',  ( 0.0000000000000000000, 0.0000000000000000000, 1.000000000000000000 ) ) ;
#90 = CLOSED_SHELL ( 'NONE', ( #12, #23, #105, #27 ) ) ;
#91 = VERTEX_POINT ( 'NONE', #14 ) ;
#92 = DIRECTION ( 'NONE',  ( 0.0000000000000000000, 0.0000000000000000000, 1.000000000000000000 ) ) ;
#93 = PERSON_AND_ORGANIZATION_ROLE ( 'classification_officer' ) ;
#94 = EDGE_CURVE ( 'NONE', #33, #129, #1, .T. ) ;
#95 = LOCAL_TIME ( 12, 46, 23.00000000000000000, #158 ) ;
#96 = CIRCLE ( 'NONE', #151, 7.500000000000000000 ) ;
#97 = CALENDAR_DATE ( 2017, 3, 4 ) ;
#98 = APPROVAL_STATUS ( 'not_yet_approved' ) ;
#99 = CARTESIAN_POINT ( 'NONE',  ( 0.0000000000000000000, 0.0000000000000000000, -2.000000000000000000 ) ) ;
#100 = CARTESIAN_POINT ( 'NONE',  ( -7.500000000000000000, 9.184850993605147900E-016, 0.0000000000000000000 ) ) ;
#101 = APPROVAL ( #110, 'UNSPECIFIED' ) ;
#102 = CC_DESIGN_PERSON_AND_ORGANIZATION_ASSIGNMENT ( #138, #43, ( #42 ) ) ;
#103 = CARTESIAN_POINT ( 'NONE',  ( 0.0000000000000000000, 0.0000000000000000000, 0.0000000000000000000 ) ) ;
#104 = ORIENTED_EDGE ( 'NONE', *, *, #74, .T. ) ;
#105 = ADVANCED_FACE ( 'NONE', ( #135 ), #68, .F. ) ;
#106 = PERSON_AND_ORGANIZATION_ROLE ( 'creator' ) ;
#107 = COORDINATED_UNIVERSAL_TIME_OFFSET ( 5, 0, .BEHIND. ) ;
#108 = CYLINDRICAL_SURFACE ( 'NONE', #162, 7.500000000000000000 ) ;
#109 = LOCAL_TIME ( 12, 46, 23.00000000000000000, #173 ) ;
#110 = APPROVAL_STATUS ( 'not_yet_approved' ) ;
#111 = DIRECTION ( 'NONE',  ( 1.000000000000000000, 0.0000000000000000000, -0.0000000000000000000 ) ) ;
#112 = EDGE_LOOP ( 'NONE', ( #6, #161 ) ) ;
#113 = COORDINATED_UNIVERSAL_TIME_OFFSET ( 5, 0, .BEHIND. ) ;
#114 =( GEOMETRIC_REPRESENTATION_CONTEXT ( 3 ) GLOBAL_UNCERTAINTY_ASSIGNED_CONTEXT ( ( #72 ) ) GLOBAL_UNIT_ASSIGNED_CONTEXT ( ( #84, #153, #78 ) ) REPRESENTATION_CONTEXT ( 'NONE', 'WORKASPACE' ) );
#115 = ORIENTED_EDGE ( 'NONE', *, *, #94, .T. ) ;
#116 = AXIS2_PLACEMENT_3D ( 'NONE', #49, #16, #32 ) ;
#117 = EDGE_LOOP ( 'NONE', ( #51, #152, #65, #163 ) ) ;
#118 = APPROVAL_STATUS ( 'not_yet_approved' ) ;
#119 = APPLICATION_PROTOCOL_DEFINITION ( 'international standard', 'config_control_design', 1994, #60 ) ;
#120 = CARTESIAN_POINT ( 'NONE',  ( 0.0000000000000000000, 0.0000000000000000000, -2.000000000000000000 ) ) ;
#121 = AXIS2_PLACEMENT_3D ( 'NONE', #46, #169, #17 ) ;
#122 = CIRCLE ( 'NONE', #35, 7.500000000000000000 ) ;
#123 = CC_DESIGN_PERSON_AND_ORGANIZATION_ASSIGNMENT ( #48, #93, ( #28 ) ) ;
#124 = PERSON_AND_ORGANIZATION ( #29, #24 ) ;
#125 = CARTESIAN_POINT ( 'NONE',  ( 0.0000000000000000000, 0.0000000000000000000, -2.000000000000000000 ) ) ;
#126 = PERSON_AND_ORGANIZATION ( #29, #24 ) ;
#127 = CARTESIAN_POINT ( 'NONE',  ( -7.500000000000000000, 9.184850993605147900E-016, -2.000000000000000000 ) ) ;
#128 = CARTESIAN_POINT ( 'NONE',  ( 0.0000000000000000000, 0.0000000000000000000, -2.000000000000000000 ) ) ;
#129 = VERTEX_POINT ( 'NONE', #100 ) ;
#130 = DIRECTION ( 'NONE',  ( 1.000000000000000000, 0.0000000000000000000, 0.0000000000000000000 ) ) ;
#131 = EDGE_CURVE ( 'NONE', #129, #4, #26, .T. ) ;
#132 = DIRECTION ( 'NONE',  ( 1.000000000000000000, 0.0000000000000000000, 0.0000000000000000000 ) ) ;
#133 = DATE_AND_TIME ( #19, #95 ) ;
#134 = DATE_TIME_ROLE ( 'creation_date' ) ;
#135 = FACE_OUTER_BOUND ( 'NONE', #112, .T. ) ;
#136 = PERSON_AND_ORGANIZATION ( #29, #24 ) ;
#137 = DIRECTION ( 'NONE',  ( 1.000000000000000000, 0.0000000000000000000, -0.0000000000000000000 ) ) ;
#138 = PERSON_AND_ORGANIZATION ( #29, #24 ) ;
#139 = CARTESIAN_POINT ( 'NONE',  ( -7.500000000000000000, 9.184850993605147900E-016, -2.000000000000000000 ) ) ;
#140 = DIRECTION ( 'NONE',  ( 0.0000000000000000000, 0.0000000000000000000, 1.000000000000000000 ) ) ;
#141 = APPLICATION_CONTEXT ( 'configuration controlled 3d designs of mechanical parts and assemblies' ) ;
#142 = PRODUCT_DEFINITION_SHAPE ( 'NONE', 'NONE',  #38 ) ;
#143 = VECTOR ( 'NONE', #87, 1000.000000000000000 ) ;
#144 = CALENDAR_DATE ( 2017, 3, 4 ) ;
#145 = AXIS2_PLACEMENT_3D ( 'NONE', #120, #164, #154 ) ;
#146 = DATE_AND_TIME ( #34, #109 ) ;
#147 = CC_DESIGN_PERSON_AND_ORGANIZATION_ASSIGNMENT ( #124, #88, ( #172 ) ) ;
#148 = DESIGN_CONTEXT ( 'detailed design', #60, 'design' ) ;
#149 = FACE_OUTER_BOUND ( 'NONE', #117, .T. ) ;
#150 = CALENDAR_DATE ( 2017, 3, 4 ) ;
#151 = AXIS2_PLACEMENT_3D ( 'NONE', #86, #21, #157 ) ;
#152 = ORIENTED_EDGE ( 'NONE', *, *, #3, .T. ) ;
#153 =( NAMED_UNIT ( * ) PLANE_ANGLE_UNIT ( ) SI_UNIT ( $, .RADIAN. ) );
#154 = DIRECTION ( 'NONE',  ( 1.000000000000000000, 0.0000000000000000000, 0.0000000000000000000 ) ) ;
#155 = CIRCLE ( 'NONE', #58, 7.500000000000000000 ) ;
#156 = CC_DESIGN_DATE_AND_TIME_ASSIGNMENT ( #22, #134, ( #38 ) ) ;
#157 = DIRECTION ( 'NONE',  ( 1.000000000000000000, 0.0000000000000000000, 0.0000000000000000000 ) ) ;
#158 = COORDINATED_UNIVERSAL_TIME_OFFSET ( 5, 0, .BEHIND. ) ;
#159 = APPLICATION_PROTOCOL_DEFINITION ( 'international standard', 'config_control_design', 1994, #141 ) ;
#160 = LOCAL_TIME ( 12, 46, 23.00000000000000000, #52 ) ;
#161 = ORIENTED_EDGE ( 'NONE', *, *, #3, .F. ) ;
#162 = AXIS2_PLACEMENT_3D ( 'NONE', #99, #69, #132 ) ;
#163 = ORIENTED_EDGE ( 'NONE', *, *, #131, .F. ) ;
#164 = DIRECTION ( 'NONE',  ( 0.0000000000000000000, 0.0000000000000000000, 1.000000000000000000 ) ) ;
#165 = MANIFOLD_SOLID_BREP ( 'Extrude1', #90 ) ;
#166 = MECHANICAL_CONTEXT ( 'NONE', #141, 'mechanical' ) ;
#167 = APPROVAL ( #98, 'UNSPECIFIED' ) ;
#168 = FACE_OUTER_BOUND ( 'NONE', #75, .T. ) ;
#169 = DIRECTION ( 'NONE',  ( 0.0000000000000000000, 0.0000000000000000000, 1.000000000000000000 ) ) ;
#170 = AXIS2_PLACEMENT_3D ( 'NONE', #128, #47, #137 ) ;
#171 = APPROVAL_PERSON_ORGANIZATION ( #62, #101, #61 ) ;
#172 = PRODUCT_DEFINITION_FORMATION_WITH_SPECIFIED_SOURCE ( 'ANY', '', #42, .NOT_KNOWN. ) ;
#173 = COORDINATED_UNIVERSAL_TIME_OFFSET ( 5, 0, .BEHIND. ) ;
#174 = APPROVAL_PERSON_ORGANIZATION ( #67, #10, #13 ) ;
#175 = PERSON_AND_ORGANIZATION_ROLE ( 'creator' ) ;
ENDSEC;
END-ISO-10303-21;
