ISO-10303-21;
HEADER;
FILE_DESCRIPTION (( 'STEP AP214' ),
    '1' );
FILE_NAME ('PKJEP4.STEP',
    '2015-01-14T07:36:52',
    ( '' ),
    ( '' ),
    'SwSTEP 2.0',
    'SolidWorks 2012',
    '' );
FILE_SCHEMA (( 'AUTOMOTIVE_DESIGN' ));
ENDSEC;

DATA;
#1 = VERTEX_POINT ( 'NONE', #220 ) ;
#2 = ORIENTED_EDGE ( 'NONE', *, *, #83, .T. ) ;
#3 = EDGE_LOOP ( 'NONE', ( #231, #2, #236, #244 ) ) ;
#4 = VERTEX_POINT ( 'NONE', #225 ) ;
#5 = VERTEX_POINT ( 'NONE', #226 ) ;
#6 = ORIENTED_EDGE ( 'NONE', *, *, #89, .T. ) ;
#7 = ORIENTED_EDGE ( 'NONE', *, *, #85, .F. ) ;
#8 = VERTEX_POINT ( 'NONE', #221 ) ;
#9 = EDGE_LOOP ( 'NONE', ( #237, #242, #233, #232 ) ) ;
#10 = EDGE_LOOP ( 'NONE', ( #11, #12, #7, #6 ) ) ;
#11 = ORIENTED_EDGE ( 'NONE', *, *, #87, .T. ) ;
#12 = ORIENTED_EDGE ( 'NONE', *, *, #82, .F. ) ;
#13 = VERTEX_POINT ( 'NONE', #222 ) ;
#14 = CLOSED_SHELL ( 'NONE', ( #277, #276, #275, #279, #274, #278 ) ) ;
#15 = VERTEX_POINT ( 'NONE', #106 ) ;
#16 = PRESENTATION_STYLE_ASSIGNMENT (( #160 ) ) ;
#17 = EDGE_LOOP ( 'NONE', ( #234, #241, #229, #239 ) ) ;
#18 = EDGE_LOOP ( 'NONE', ( #230, #245, #247, #238 ) ) ;
#19 = VERTEX_POINT ( 'NONE', #224 ) ;
#20 = EDGE_LOOP ( 'NONE', ( #235, #243, #246, #240 ) ) ;
#21 = VERTEX_POINT ( 'NONE', #219 ) ;
#22 = MANIFOLD_SOLID_BREP ( 'Boss-Extrude1', #14 ) ;
#23 = UNCERTAINTY_MEASURE_WITH_UNIT (LENGTH_MEASURE( 1.000000000000000100E-005 ), #181, 'distance_accuracy_value', 'NONE');
#24 = UNCERTAINTY_MEASURE_WITH_UNIT (LENGTH_MEASURE( 1.000000000000000100E-005 ), #214, 'distance_accuracy_value', 'NONE');
#25 = UNCERTAINTY_MEASURE_WITH_UNIT (LENGTH_MEASURE( 1.000000000000000100E-005 ), #170, 'distance_accuracy_value', 'NONE');
#26 = UNCERTAINTY_MEASURE_WITH_UNIT (LENGTH_MEASURE( 1.000000000000000100E-005 ), #159, 'distance_accuracy_value', 'NONE');
#27 = UNCERTAINTY_MEASURE_WITH_UNIT (LENGTH_MEASURE( 1.000000000000000100E-005 ), #148, 'distance_accuracy_value', 'NONE');
#28 = UNCERTAINTY_MEASURE_WITH_UNIT (LENGTH_MEASURE( 1.000000000000000100E-005 ), #134, 'distance_accuracy_value', 'NONE');
#29 = UNCERTAINTY_MEASURE_WITH_UNIT (LENGTH_MEASURE( 1.000000000000000100E-005 ), #131, 'distance_accuracy_value', 'NONE');
#30 = UNCERTAINTY_MEASURE_WITH_UNIT (LENGTH_MEASURE( 1.000000000000000100E-005 ), #113, 'distance_accuracy_value', 'NONE');
#31 = COLOUR_RGB ( '',1.000000000000000000, 1.000000000000000000, 1.000000000000000000 ) ;
#32 = SURFACE_STYLE_FILL_AREA ( #162 ) ;
#33 = LINE ( 'NONE', #193, #34 ) ;
#34 = VECTOR ( 'NONE', #192, 1000.000000000000000 ) ;
#35 = LINE ( 'NONE', #191, #41 ) ;
#36 = VECTOR ( 'NONE', #194, 1000.000000000000000 ) ;
#37 = LINE ( 'NONE', #189, #38 ) ;
#38 = VECTOR ( 'NONE', #187, 1000.000000000000000 ) ;
#39 = LINE ( 'NONE', #195, #36 ) ;
#40 = COLOUR_RGB ( '',1.000000000000000000, 1.000000000000000000, 1.000000000000000000 ) ;
#41 = VECTOR ( 'NONE', #190, 1000.000000000000000 ) ;
#42 = PRESENTATION_STYLE_ASSIGNMENT (( #182 ) ) ;
#43 = SURFACE_STYLE_FILL_AREA ( #184 ) ;
#44 = FACE_OUTER_BOUND ( 'NONE', #3, .T. ) ;
#45 = SURFACE_STYLE_FILL_AREA ( #173 ) ;
#46 = FACE_OUTER_BOUND ( 'NONE', #20, .T. ) ;
#47 = PRESENTATION_STYLE_ASSIGNMENT (( #171 ) ) ;
#48 = COLOUR_RGB ( '',1.000000000000000000, 1.000000000000000000, 1.000000000000000000 ) ;
#49 = VECTOR ( 'NONE', #203, 1000.000000000000000 ) ;
#50 = VECTOR ( 'NONE', #198, 1000.000000000000000 ) ;
#51 = LINE ( 'NONE', #207, #50 ) ;
#52 = VECTOR ( 'NONE', #201, 1000.000000000000000 ) ;
#53 = LINE ( 'NONE', #204, #63 ) ;
#54 = LINE ( 'NONE', #200, #59 ) ;
#55 = LINE ( 'NONE', #211, #49 ) ;
#56 = VECTOR ( 'NONE', #205, 1000.000000000000000 ) ;
#57 = LINE ( 'NONE', #223, #56 ) ;
#58 = LINE ( 'NONE', #202, #52 ) ;
#59 = VECTOR ( 'NONE', #199, 1000.000000000000000 ) ;
#60 = FACE_OUTER_BOUND ( 'NONE', #18, .T. ) ;
#61 = LINE ( 'NONE', #212, #62 ) ;
#62 = VECTOR ( 'NONE', #206, 1000.000000000000000 ) ;
#63 = VECTOR ( 'NONE', #196, 1000.000000000000000 ) ;
#64 = MECHANICAL_DESIGN_GEOMETRIC_PRESENTATION_REPRESENTATION (  '', ( #101 ), #78 ) ;
#65 = MECHANICAL_DESIGN_GEOMETRIC_PRESENTATION_REPRESENTATION (  '', ( #75 ), #71 ) ;
#66 = PRESENTATION_LAYER_ASSIGNMENT (  '', '', ( #67 ) ) ;
#67 = STYLED_ITEM ( 'NONE', ( #249 ), #277 ) ;
#68 = AXIS2_PLACEMENT_3D ( 'NONE', #156, #155, #154 ) ;
#69 = MECHANICAL_DESIGN_GEOMETRIC_PRESENTATION_REPRESENTATION (  '', ( #76 ), #80 ) ;
#70 = MECHANICAL_DESIGN_GEOMETRIC_PRESENTATION_REPRESENTATION (  '', ( #67 ), #79 ) ;
#71 =( GEOMETRIC_REPRESENTATION_CONTEXT ( 3 ) GLOBAL_UNCERTAINTY_ASSIGNED_CONTEXT ( ( #26 ) ) GLOBAL_UNIT_ASSIGNED_CONTEXT ( ( #159, #158, #157 ) ) REPRESENTATION_CONTEXT ( 'NONE', 'WORKASPACE' ) );
#72 = PRESENTATION_LAYER_ASSIGNMENT (  '', '', ( #76 ) ) ;
#73 = PRESENTATION_LAYER_ASSIGNMENT (  '', '', ( #75 ) ) ;
#74 = AXIS2_PLACEMENT_3D ( 'NONE', #145, #140, #139 ) ;
#75 = STYLED_ITEM ( 'NONE', ( #16 ), #276 ) ;
#76 = STYLED_ITEM ( 'NONE', ( #253 ), #278 ) ;
#77 = AXIS2_PLACEMENT_3D ( 'NONE', #167, #166, #165 ) ;
#78 =( GEOMETRIC_REPRESENTATION_CONTEXT ( 3 ) GLOBAL_UNCERTAINTY_ASSIGNED_CONTEXT ( ( #25 ) ) GLOBAL_UNIT_ASSIGNED_CONTEXT ( ( #170, #169, #168 ) ) REPRESENTATION_CONTEXT ( 'NONE', 'WORKASPACE' ) );
#79 =( GEOMETRIC_REPRESENTATION_CONTEXT ( 3 ) GLOBAL_UNCERTAINTY_ASSIGNED_CONTEXT ( ( #27 ) ) GLOBAL_UNIT_ASSIGNED_CONTEXT ( ( #148, #147, #146 ) ) REPRESENTATION_CONTEXT ( 'NONE', 'WORKASPACE' ) );
#80 =( GEOMETRIC_REPRESENTATION_CONTEXT ( 3 ) GLOBAL_UNCERTAINTY_ASSIGNED_CONTEXT ( ( #28 ) ) GLOBAL_UNIT_ASSIGNED_CONTEXT ( ( #134, #124, #136 ) ) REPRESENTATION_CONTEXT ( 'NONE', 'WORKASPACE' ) );
#81 = EDGE_CURVE ( 'NONE', #15, #1, #285, .T. ) ;
#82 = EDGE_CURVE ( 'NONE', #8, #19, #61, .T. ) ;
#83 = EDGE_CURVE ( 'NONE', #8, #4, #57, .T. ) ;
#84 = EDGE_CURVE ( 'NONE', #19, #15, #55, .T. ) ;
#85 = EDGE_CURVE ( 'NONE', #13, #8, #58, .T. ) ;
#86 = EDGE_CURVE ( 'NONE', #5, #1, #54, .T. ) ;
#87 = EDGE_CURVE ( 'NONE', #21, #19, #51, .T. ) ;
#88 = EDGE_CURVE ( 'NONE', #5, #13, #53, .T. ) ;
#89 = EDGE_CURVE ( 'NONE', #13, #21, #39, .T. ) ;
#90 = EDGE_CURVE ( 'NONE', #4, #15, #33, .T. ) ;
#91 = EDGE_CURVE ( 'NONE', #4, #5, #35, .T. ) ;
#92 = EDGE_CURVE ( 'NONE', #1, #21, #37, .T. ) ;
#93 = STYLED_ITEM ( 'NONE', ( #287 ), #22 ) ;
#94 = PRESENTATION_LAYER_ASSIGNMENT (  '', '', ( #93 ) ) ;
#95 = MECHANICAL_DESIGN_GEOMETRIC_PRESENTATION_REPRESENTATION (  '', ( #93 ), #96 ) ;
#96 =( GEOMETRIC_REPRESENTATION_CONTEXT ( 3 ) GLOBAL_UNCERTAINTY_ASSIGNED_CONTEXT ( ( #24 ) ) GLOBAL_UNIT_ASSIGNED_CONTEXT ( ( #214, #213, #210 ) ) REPRESENTATION_CONTEXT ( 'NONE', 'WORKASPACE' ) );
#97 = STYLED_ITEM ( 'NONE', ( #42 ), #274 ) ;
#98 = PRESENTATION_LAYER_ASSIGNMENT (  '', '', ( #97 ) ) ;
#99 = MECHANICAL_DESIGN_GEOMETRIC_PRESENTATION_REPRESENTATION (  '', ( #97 ), #100 ) ;
#100 =( GEOMETRIC_REPRESENTATION_CONTEXT ( 3 ) GLOBAL_UNCERTAINTY_ASSIGNED_CONTEXT ( ( #23 ) ) GLOBAL_UNIT_ASSIGNED_CONTEXT ( ( #181, #180, #179 ) ) REPRESENTATION_CONTEXT ( 'NONE', 'WORKASPACE' ) );
#101 = STYLED_ITEM ( 'NONE', ( #47 ), #275 ) ;
#102 = AXIS2_PLACEMENT_3D ( 'NONE', #178, #177, #176 ) ;
#103 = PRESENTATION_LAYER_ASSIGNMENT (  '', '', ( #101 ) ) ;
#104 = DIRECTION ( 'NONE',  ( 0.0000000000000000000, 0.0000000000000000000, 1.000000000000000000 ) ) ;
#105 = APPLICATION_PROTOCOL_DEFINITION ( 'draft international standard', 'automotive_design', 1998, #110 ) ;
#106 = CARTESIAN_POINT ( 'NONE',  ( 1.500000000000000000, 0.0000000000000000000, 1.500000000000000000 ) ) ;
#107 = CARTESIAN_POINT ( 'NONE',  ( 0.0000000000000000000, 0.0000000000000000000, 0.0000000000000000000 ) ) ;
#108 = DIRECTION ( 'NONE',  ( 1.000000000000000000, 0.0000000000000000000, 0.0000000000000000000 ) ) ;
#109 = PRODUCT_CONTEXT ( 'NONE', #120, 'mechanical' ) ;
#110 = APPLICATION_CONTEXT ( 'automotive_design' ) ;
#111 =( NAMED_UNIT ( * ) SI_UNIT ( $, .STERADIAN. ) SOLID_ANGLE_UNIT ( ) );
#112 = DIRECTION ( 'NONE',  ( 0.0000000000000000000, -0.0000000000000000000, 1.000000000000000000 ) ) ;
#113 =( LENGTH_UNIT ( ) NAMED_UNIT ( * ) SI_UNIT ( .MILLI., .METRE. ) );
#114 =( LENGTH_UNIT ( ) NAMED_UNIT ( * ) SI_UNIT ( .MILLI., .METRE. ) );
#115 = DIRECTION ( 'NONE',  ( -0.0000000000000000000, 1.000000000000000000, 0.0000000000000000000 ) ) ;
#116 = SURFACE_STYLE_USAGE ( .BOTH. , #117 ) ;
#117 = SURFACE_SIDE_STYLE ('',( #260 ) ) ;
#118 = FILL_AREA_STYLE ('',( #119 ) ) ;
#119 = FILL_AREA_STYLE_COLOUR ( '', #261 ) ;
#120 = APPLICATION_CONTEXT ( 'automotive_design' ) ;
#121 =( NAMED_UNIT ( * ) PLANE_ANGLE_UNIT ( ) SI_UNIT ( $, .RADIAN. ) );
#122 = SURFACE_STYLE_USAGE ( .BOTH. , #125 ) ;
#123 = FILL_AREA_STYLE ('',( #152 ) ) ;
#124 =( NAMED_UNIT ( * ) PLANE_ANGLE_UNIT ( ) SI_UNIT ( $, .RADIAN. ) );
#125 = SURFACE_SIDE_STYLE ('',( #254 ) ) ;
#126 = DIRECTION ( 'NONE',  ( 1.000000000000000000, 0.0000000000000000000, -1.445602896647339200E-016 ) ) ;
#127 = DIRECTION ( 'NONE',  ( 1.445602896647339200E-016, -0.0000000000000000000, 1.000000000000000000 ) ) ;
#128 = CARTESIAN_POINT ( 'NONE',  ( -1.500000000000000200, 0.4000000000000000200, -1.499999999999999600 ) ) ;
#129 =( NAMED_UNIT ( * ) SI_UNIT ( $, .STERADIAN. ) SOLID_ANGLE_UNIT ( ) );
#130 =( NAMED_UNIT ( * ) PLANE_ANGLE_UNIT ( ) SI_UNIT ( $, .RADIAN. ) );
#131 =( LENGTH_UNIT ( ) NAMED_UNIT ( * ) SI_UNIT ( .MILLI., .METRE. ) );
#132 = SURFACE_STYLE_USAGE ( .BOTH. , #133 ) ;
#133 = SURFACE_SIDE_STYLE ('',( #258 ) ) ;
#134 =( LENGTH_UNIT ( ) NAMED_UNIT ( * ) SI_UNIT ( .MILLI., .METRE. ) );
#135 = APPLICATION_PROTOCOL_DEFINITION ( 'draft international standard', 'automotive_design', 1998, #120 ) ;
#136 =( NAMED_UNIT ( * ) SI_UNIT ( $, .STERADIAN. ) SOLID_ANGLE_UNIT ( ) );
#137 =( NAMED_UNIT ( * ) PLANE_ANGLE_UNIT ( ) SI_UNIT ( $, .RADIAN. ) );
#138 = CARTESIAN_POINT ( 'NONE',  ( 0.0000000000000000000, 0.0000000000000000000, 0.0000000000000000000 ) ) ;
#139 = DIRECTION ( 'NONE',  ( -2.168404344971008900E-016, 0.0000000000000000000, -1.000000000000000000 ) ) ;
#140 = DIRECTION ( 'NONE',  ( 1.000000000000000000, 0.0000000000000000000, -2.168404344971008900E-016 ) ) ;
#141 =( NAMED_UNIT ( * ) SI_UNIT ( $, .STERADIAN. ) SOLID_ANGLE_UNIT ( ) );
#142 = FILL_AREA_STYLE_COLOUR ( '', #259 ) ;
#143 = PLANE ( 'NONE',  #228 ) ;
#144 = FILL_AREA_STYLE ('',( #142 ) ) ;
#145 = CARTESIAN_POINT ( 'NONE',  ( -1.500000000000000200, 0.4000000000000000200, -1.499999999999999600 ) ) ;
#146 =( NAMED_UNIT ( * ) SI_UNIT ( $, .STERADIAN. ) SOLID_ANGLE_UNIT ( ) );
#147 =( NAMED_UNIT ( * ) PLANE_ANGLE_UNIT ( ) SI_UNIT ( $, .RADIAN. ) );
#148 =( LENGTH_UNIT ( ) NAMED_UNIT ( * ) SI_UNIT ( .MILLI., .METRE. ) );
#149 = SURFACE_STYLE_USAGE ( .BOTH. , #150 ) ;
#150 = SURFACE_SIDE_STYLE ('',( #250 ) ) ;
#151 = FILL_AREA_STYLE ('',( #163 ) ) ;
#152 = FILL_AREA_STYLE_COLOUR ( '', #255 ) ;
#153 = PLANE ( 'NONE',  #290 ) ;
#154 = DIRECTION ( 'NONE',  ( -1.000000000000000000, 0.0000000000000000000, 1.445602896647339400E-016 ) ) ;
#155 = DIRECTION ( 'NONE',  ( -1.445602896647339400E-016, 0.0000000000000000000, -1.000000000000000000 ) ) ;
#156 = CARTESIAN_POINT ( 'NONE',  ( -1.499999999999999600, 0.4000000000000000200, 1.500000000000000400 ) ) ;
#157 =( NAMED_UNIT ( * ) SI_UNIT ( $, .STERADIAN. ) SOLID_ANGLE_UNIT ( ) );
#158 =( NAMED_UNIT ( * ) PLANE_ANGLE_UNIT ( ) SI_UNIT ( $, .RADIAN. ) );
#159 =( LENGTH_UNIT ( ) NAMED_UNIT ( * ) SI_UNIT ( .MILLI., .METRE. ) );
#160 = SURFACE_STYLE_USAGE ( .BOTH. , #161 ) ;
#161 = SURFACE_SIDE_STYLE ('',( #32 ) ) ;
#162 = FILL_AREA_STYLE ('',( #174 ) ) ;
#163 = FILL_AREA_STYLE_COLOUR ( '', #251 ) ;
#164 = PLANE ( 'NONE',  #74 ) ;
#165 = DIRECTION ( 'NONE',  ( 7.228014483236695800E-017, 0.0000000000000000000, 1.000000000000000000 ) ) ;
#166 = DIRECTION ( 'NONE',  ( -1.000000000000000000, 0.0000000000000000000, 7.228014483236695800E-017 ) ) ;
#167 = CARTESIAN_POINT ( 'NONE',  ( 1.499999999999999800, 0.4000000000000000200, -1.500000000000000000 ) ) ;
#168 =( NAMED_UNIT ( * ) SI_UNIT ( $, .STERADIAN. ) SOLID_ANGLE_UNIT ( ) );
#169 =( NAMED_UNIT ( * ) PLANE_ANGLE_UNIT ( ) SI_UNIT ( $, .RADIAN. ) );
#170 =( LENGTH_UNIT ( ) NAMED_UNIT ( * ) SI_UNIT ( .MILLI., .METRE. ) );
#171 = SURFACE_STYLE_USAGE ( .BOTH. , #172 ) ;
#172 = SURFACE_SIDE_STYLE ('',( #45 ) ) ;
#173 = FILL_AREA_STYLE ('',( #188 ) ) ;
#174 = FILL_AREA_STYLE_COLOUR ( '', #31 ) ;
#175 = PLANE ( 'NONE',  #68 ) ;
#176 = DIRECTION ( 'NONE',  ( 0.0000000000000000000, -0.0000000000000000000, 1.000000000000000000 ) ) ;
#177 = DIRECTION ( 'NONE',  ( -0.0000000000000000000, 1.000000000000000000, 0.0000000000000000000 ) ) ;
#178 = CARTESIAN_POINT ( 'NONE',  ( 0.0000000000000000000, 0.4000000000000000200, 0.0000000000000000000 ) ) ;
#179 =( NAMED_UNIT ( * ) SI_UNIT ( $, .STERADIAN. ) SOLID_ANGLE_UNIT ( ) );
#180 =( NAMED_UNIT ( * ) PLANE_ANGLE_UNIT ( ) SI_UNIT ( $, .RADIAN. ) );
#181 =( LENGTH_UNIT ( ) NAMED_UNIT ( * ) SI_UNIT ( .MILLI., .METRE. ) );
#182 = SURFACE_STYLE_USAGE ( .BOTH. , #183 ) ;
#183 = SURFACE_SIDE_STYLE ('',( #43 ) ) ;
#184 = FILL_AREA_STYLE ('',( #185 ) ) ;
#185 = FILL_AREA_STYLE_COLOUR ( '', #40 ) ;
#186 = PLANE ( 'NONE',  #77 ) ;
#187 = DIRECTION ( 'NONE',  ( -1.000000000000000000, -0.0000000000000000000, 1.445602896647339200E-016 ) ) ;
#188 = FILL_AREA_STYLE_COLOUR ( '', #48 ) ;
#189 = CARTESIAN_POINT ( 'NONE',  ( -1.500000000000000200, 0.0000000000000000000, -1.499999999999999600 ) ) ;
#190 = DIRECTION ( 'NONE',  ( -7.228014483236695800E-017, -0.0000000000000000000, -1.000000000000000000 ) ) ;
#191 = CARTESIAN_POINT ( 'NONE',  ( 1.499999999999999800, 0.4000000000000000200, -1.500000000000000000 ) ) ;
#192 = DIRECTION ( 'NONE',  ( -0.0000000000000000000, -1.000000000000000000, -0.0000000000000000000 ) ) ;
#193 = CARTESIAN_POINT ( 'NONE',  ( 1.500000000000000000, 0.4000000000000000200, 1.500000000000000000 ) ) ;
#194 = DIRECTION ( 'NONE',  ( -0.0000000000000000000, -1.000000000000000000, -0.0000000000000000000 ) ) ;
#195 = CARTESIAN_POINT ( 'NONE',  ( -1.500000000000000200, 0.4000000000000000200, -1.499999999999999600 ) ) ;
#196 = DIRECTION ( 'NONE',  ( -1.000000000000000000, -0.0000000000000000000, 1.445602896647339200E-016 ) ) ;
#197 = PLANE ( 'NONE',  #102 ) ;
#198 = DIRECTION ( 'NONE',  ( 2.168404344971008900E-016, 0.0000000000000000000, 1.000000000000000000 ) ) ;
#199 = DIRECTION ( 'NONE',  ( -0.0000000000000000000, -1.000000000000000000, -0.0000000000000000000 ) ) ;
#200 = CARTESIAN_POINT ( 'NONE',  ( 1.499999999999999800, 0.4000000000000000200, -1.500000000000000000 ) ) ;
#201 = DIRECTION ( 'NONE',  ( 2.168404344971008900E-016, 0.0000000000000000000, 1.000000000000000000 ) ) ;
#202 = CARTESIAN_POINT ( 'NONE',  ( -1.500000000000000200, 0.4000000000000000200, -1.499999999999999600 ) ) ;
#203 = DIRECTION ( 'NONE',  ( 1.000000000000000000, 0.0000000000000000000, -1.445602896647339400E-016 ) ) ;
#204 = CARTESIAN_POINT ( 'NONE',  ( -1.500000000000000200, 0.4000000000000000200, -1.499999999999999600 ) ) ;
#205 = DIRECTION ( 'NONE',  ( 1.000000000000000000, 0.0000000000000000000, -1.445602896647339400E-016 ) ) ;
#206 = DIRECTION ( 'NONE',  ( -0.0000000000000000000, -1.000000000000000000, -0.0000000000000000000 ) ) ;
#207 = CARTESIAN_POINT ( 'NONE',  ( -1.500000000000000200, 0.0000000000000000000, -1.499999999999999600 ) ) ;
#208 = DIRECTION ( 'NONE',  ( -7.228014483236695800E-017, -0.0000000000000000000, -1.000000000000000000 ) ) ;
#209 = CARTESIAN_POINT ( 'NONE',  ( 1.499999999999999800, 0.0000000000000000000, -1.500000000000000000 ) ) ;
#210 =( NAMED_UNIT ( * ) SI_UNIT ( $, .STERADIAN. ) SOLID_ANGLE_UNIT ( ) );
#211 = CARTESIAN_POINT ( 'NONE',  ( -1.499999999999999600, 0.0000000000000000000, 1.500000000000000400 ) ) ;
#212 = CARTESIAN_POINT ( 'NONE',  ( -1.499999999999999600, 0.4000000000000000200, 1.500000000000000400 ) ) ;
#213 =( NAMED_UNIT ( * ) PLANE_ANGLE_UNIT ( ) SI_UNIT ( $, .RADIAN. ) );
#214 =( LENGTH_UNIT ( ) NAMED_UNIT ( * ) SI_UNIT ( .MILLI., .METRE. ) );
#215 = FILL_AREA_STYLE ('',( #218 ) ) ;
#216 = SURFACE_STYLE_USAGE ( .BOTH. , #217 ) ;
#217 = SURFACE_SIDE_STYLE ('',( #283 ) ) ;
#218 = FILL_AREA_STYLE_COLOUR ( '', #286 ) ;
#219 = CARTESIAN_POINT ( 'NONE',  ( -1.500000000000000200, 0.0000000000000000000, -1.499999999999999600 ) ) ;
#220 = CARTESIAN_POINT ( 'NONE',  ( 1.499999999999999800, 0.0000000000000000000, -1.500000000000000000 ) ) ;
#221 = CARTESIAN_POINT ( 'NONE',  ( -1.499999999999999600, 0.4000000000000000200, 1.500000000000000400 ) ) ;
#222 = CARTESIAN_POINT ( 'NONE',  ( -1.500000000000000200, 0.4000000000000000200, -1.499999999999999600 ) ) ;
#223 = CARTESIAN_POINT ( 'NONE',  ( -1.499999999999999600, 0.4000000000000000200, 1.500000000000000400 ) ) ;
#224 = CARTESIAN_POINT ( 'NONE',  ( -1.499999999999999600, 0.0000000000000000000, 1.500000000000000400 ) ) ;
#225 = CARTESIAN_POINT ( 'NONE',  ( 1.500000000000000000, 0.4000000000000000200, 1.500000000000000000 ) ) ;
#226 = CARTESIAN_POINT ( 'NONE',  ( 1.499999999999999800, 0.4000000000000000200, -1.500000000000000000 ) ) ;
#227 =( GEOMETRIC_REPRESENTATION_CONTEXT ( 3 ) GLOBAL_UNCERTAINTY_ASSIGNED_CONTEXT ( ( #30 ) ) GLOBAL_UNIT_ASSIGNED_CONTEXT ( ( #113, #137, #141 ) ) REPRESENTATION_CONTEXT ( 'NONE', 'WORKASPACE' ) );
#228 = AXIS2_PLACEMENT_3D ( 'NONE', #128, #127, #126 ) ;
#229 = ORIENTED_EDGE ( 'NONE', *, *, #88, .F. ) ;
#230 = ORIENTED_EDGE ( 'NONE', *, *, #84, .T. ) ;
#231 = ORIENTED_EDGE ( 'NONE', *, *, #85, .T. ) ;
#232 = ORIENTED_EDGE ( 'NONE', *, *, #84, .F. ) ;
#233 = ORIENTED_EDGE ( 'NONE', *, *, #81, .F. ) ;
#234 = ORIENTED_EDGE ( 'NONE', *, *, #92, .T. ) ;
#235 = ORIENTED_EDGE ( 'NONE', *, *, #81, .T. ) ;
#236 = ORIENTED_EDGE ( 'NONE', *, *, #91, .T. ) ;
#237 = ORIENTED_EDGE ( 'NONE', *, *, #87, .F. ) ;
#238 = ORIENTED_EDGE ( 'NONE', *, *, #82, .T. ) ;
#239 = ORIENTED_EDGE ( 'NONE', *, *, #86, .T. ) ;
#240 = ORIENTED_EDGE ( 'NONE', *, *, #90, .T. ) ;
#241 = ORIENTED_EDGE ( 'NONE', *, *, #89, .F. ) ;
#242 = ORIENTED_EDGE ( 'NONE', *, *, #92, .F. ) ;
#243 = ORIENTED_EDGE ( 'NONE', *, *, #86, .F. ) ;
#244 = ORIENTED_EDGE ( 'NONE', *, *, #88, .T. ) ;
#245 = ORIENTED_EDGE ( 'NONE', *, *, #90, .F. ) ;
#246 = ORIENTED_EDGE ( 'NONE', *, *, #91, .F. ) ;
#247 = ORIENTED_EDGE ( 'NONE', *, *, #83, .F. ) ;
#248 = FACE_OUTER_BOUND ( 'NONE', #10, .T. ) ;
#249 = PRESENTATION_STYLE_ASSIGNMENT (( #149 ) ) ;
#250 = SURFACE_STYLE_FILL_AREA ( #151 ) ;
#251 = COLOUR_RGB ( '',1.000000000000000000, 1.000000000000000000, 1.000000000000000000 ) ;
#252 = FACE_OUTER_BOUND ( 'NONE', #9, .T. ) ;
#253 = PRESENTATION_STYLE_ASSIGNMENT (( #122 ) ) ;
#254 = SURFACE_STYLE_FILL_AREA ( #123 ) ;
#255 = COLOUR_RGB ( '',1.000000000000000000, 1.000000000000000000, 1.000000000000000000 ) ;
#256 = FACE_OUTER_BOUND ( 'NONE', #17, .T. ) ;
#257 = PRESENTATION_STYLE_ASSIGNMENT (( #132 ) ) ;
#258 = SURFACE_STYLE_FILL_AREA ( #144 ) ;
#259 = COLOUR_RGB ( '',1.000000000000000000, 1.000000000000000000, 1.000000000000000000 ) ;
#260 = SURFACE_STYLE_FILL_AREA ( #118 ) ;
#261 = COLOUR_RGB ( '',1.000000000000000000, 0.5019607843137254800, 0.5019607843137254800 ) ;
#262 = PRESENTATION_STYLE_ASSIGNMENT (( #116 ) ) ;
#263 = SHAPE_DEFINITION_REPRESENTATION ( #282, #264 ) ;
#264 = ADVANCED_BREP_SHAPE_REPRESENTATION ( 'PKJEP4', ( #22, #270 ), #227 ) ;
#265 = UNCERTAINTY_MEASURE_WITH_UNIT (LENGTH_MEASURE( 1.000000000000000100E-005 ), #114, 'distance_accuracy_value', 'NONE');
#266 = STYLED_ITEM ( 'NONE', ( #262 ), #264 ) ;
#267 = PRESENTATION_LAYER_ASSIGNMENT (  '', '', ( #266 ) ) ;
#268 = MECHANICAL_DESIGN_GEOMETRIC_PRESENTATION_REPRESENTATION (  '', ( #266 ), #269 ) ;
#269 =( GEOMETRIC_REPRESENTATION_CONTEXT ( 3 ) GLOBAL_UNCERTAINTY_ASSIGNED_CONTEXT ( ( #265 ) ) GLOBAL_UNIT_ASSIGNED_CONTEXT ( ( #114, #121, #111 ) ) REPRESENTATION_CONTEXT ( 'NONE', 'WORKASPACE' ) );
#270 = AXIS2_PLACEMENT_3D ( 'NONE', #138, #104, #108 ) ;
#271 = PRODUCT_DEFINITION ( 'UNKNOWN', '', #272, #281 ) ;
#272 = PRODUCT_DEFINITION_FORMATION_WITH_SPECIFIED_SOURCE ( 'ANY', '', #280, .NOT_KNOWN. ) ;
#273 = PRODUCT_RELATED_PRODUCT_CATEGORY ( 'part', '', ( #280 ) ) ;
#274 = ADVANCED_FACE ( 'NONE', ( #44 ), #197, .T. ) ;
#275 = ADVANCED_FACE ( 'NONE', ( #46 ), #186, .F. ) ;
#276 = ADVANCED_FACE ( 'NONE', ( #60 ), #175, .F. ) ;
#277 = ADVANCED_FACE ( 'NONE', ( #248 ), #164, .F. ) ;
#278 = ADVANCED_FACE ( 'NONE', ( #252 ), #153, .F. ) ;
#279 = ADVANCED_FACE ( 'NONE', ( #256 ), #143, .F. ) ;
#280 = PRODUCT ( 'PKJEP4', 'PKJEP4', '', ( #109 ) ) ;
#281 = PRODUCT_DEFINITION_CONTEXT ( 'detailed design', #110, 'design' ) ;
#282 = PRODUCT_DEFINITION_SHAPE ( 'NONE', 'NONE',  #271 ) ;
#283 = SURFACE_STYLE_FILL_AREA ( #215 ) ;
#284 = VECTOR ( 'NONE', #208, 1000.000000000000000 ) ;
#285 = LINE ( 'NONE', #209, #284 ) ;
#286 = COLOUR_RGB ( '',1.000000000000000000, 1.000000000000000000, 1.000000000000000000 ) ;
#287 = PRESENTATION_STYLE_ASSIGNMENT (( #216 ) ) ;
#288 =( GEOMETRIC_REPRESENTATION_CONTEXT ( 3 ) GLOBAL_UNCERTAINTY_ASSIGNED_CONTEXT ( ( #29 ) ) GLOBAL_UNIT_ASSIGNED_CONTEXT ( ( #131, #130, #129 ) ) REPRESENTATION_CONTEXT ( 'NONE', 'WORKASPACE' ) );
#289 = STYLED_ITEM ( 'NONE', ( #257 ), #279 ) ;
#290 = AXIS2_PLACEMENT_3D ( 'NONE', #107, #115, #112 ) ;
#291 = PRESENTATION_LAYER_ASSIGNMENT (  '', '', ( #289 ) ) ;
#292 = MECHANICAL_DESIGN_GEOMETRIC_PRESENTATION_REPRESENTATION (  '', ( #289 ), #288 ) ;
ENDSEC;
END-ISO-10303-21;
