ISO-10303-21;
HEADER;
FILE_DESCRIPTION (( 'STEP AP203' ),
    '1' );
FILE_NAME ('Web Model 45855.STEP',
    '2017-01-31T15:18:44',
    ( '' ),
    ( '' ),
    'SwSTEP 2.0',
    'SolidWorks 2016',
    '' );
FILE_SCHEMA (( 'CONFIG_CONTROL_DESIGN' ));
ENDSEC;

DATA;
#1 = APPROVAL_DATE_TIME ( #28, #71 ) ;
#2 = VERTEX_POINT ( 'NONE', #85 ) ;
#3 = SECURITY_CLASSIFICATION ( '', '', #16 ) ;
#4 = PRODUCT_DEFINITION ( 'UNKNOWN', '', #218, #126 ) ;
#5 = CARTESIAN_POINT ( 'NONE',  ( 0.0000000000000000000, 50.00000000000000000, 0.0000000000000000000 ) ) ;
#6 = CARTESIAN_POINT ( 'NONE',  ( 50.00000000000000000, 0.0000000000000000000, 3.000000000000000000 ) ) ;
#7 = EDGE_CURVE ( 'NONE', #17, #175, #214, .T. ) ;
#8 = FACE_OUTER_BOUND ( 'NONE', #185, .T. ) ;
#9 = CARTESIAN_POINT ( 'NONE',  ( 0.0000000000000000000, 0.0000000000000000000, 3.000000000000000000 ) ) ;
#10 = EDGE_CURVE ( 'NONE', #175, #64, #187, .T. ) ;
#11 = ORIENTED_EDGE ( 'NONE', *, *, #112, .F. ) ;
#12 = PLANE ( 'NONE',  #162 ) ;
#13 = DIRECTION ( 'NONE',  ( 0.0000000000000000000, 0.0000000000000000000, 1.000000000000000000 ) ) ;
#14 = VECTOR ( 'NONE', #109, 1000.000000000000000 ) ;
#15 = LINE ( 'NONE', #135, #192 ) ;
#16 = SECURITY_CLASSIFICATION_LEVEL ( 'unclassified' ) ;
#17 = VERTEX_POINT ( 'NONE', #147 ) ;
#18 = PERSON_AND_ORGANIZATION_ROLE ( 'classification_officer' ) ;
#19 = PERSON_AND_ORGANIZATION ( #161, #38 ) ;
#20 = ORIENTED_EDGE ( 'NONE', *, *, #212, .F. ) ;
#21 = CC_DESIGN_DATE_AND_TIME_ASSIGNMENT ( #61, #72, ( #4 ) ) ;
#22 = ORIENTED_EDGE ( 'NONE', *, *, #197, .F. ) ;
#23 = ADVANCED_FACE ( 'NONE', ( #198 ), #78, .F. ) ;
#24 = LOCAL_TIME ( 10, 18, 43.00000000000000000, #205 ) ;
#25 = DIRECTION ( 'NONE',  ( 0.0000000000000000000, -0.0000000000000000000, 1.000000000000000000 ) ) ;
#26 = AXIS2_PLACEMENT_3D ( 'NONE', #170, #13, #81 ) ;
#27 = ORIENTED_EDGE ( 'NONE', *, *, #154, .T. ) ;
#28 = DATE_AND_TIME ( #128, #134 ) ;
#29 = CC_DESIGN_SECURITY_CLASSIFICATION ( #3, ( #218 ) ) ;
#30 = EDGE_CURVE ( 'NONE', #31, #181, #159, .T. ) ;
#31 = VERTEX_POINT ( 'NONE', #9 ) ;
#32 = CC_DESIGN_APPROVAL ( #95, ( #3 ) ) ;
#33 = PERSON_AND_ORGANIZATION_ROLE ( 'creator' ) ;
#34 = CARTESIAN_POINT ( 'NONE',  ( 0.0000000000000000000, 50.00000000000000000, 3.000000000000000000 ) ) ;
#35 = CC_DESIGN_APPROVAL ( #215, ( #218 ) ) ;
#36 = ORIENTED_EDGE ( 'NONE', *, *, #234, .T. ) ;
#37 = UNCERTAINTY_MEASURE_WITH_UNIT (LENGTH_MEASURE( 1.000000000000000100E-005 ), #186, 'distance_accuracy_value', 'NONE');
#38 = ORGANIZATION ( 'UNSPECIFIED', 'UNSPECIFIED', '' ) ;
#39 = COORDINATED_UNIVERSAL_TIME_OFFSET ( 5, 0, .BEHIND. ) ;
#40 = EDGE_LOOP ( 'NONE', ( #138, #101, #179, #158 ) ) ;
#41 = CARTESIAN_POINT ( 'NONE',  ( 0.0000000000000000000, 0.0000000000000000000, 0.0000000000000000000 ) ) ;
#42 = PERSON_AND_ORGANIZATION ( #161, #38 ) ;
#43 = CARTESIAN_POINT ( 'NONE',  ( 0.0000000000000000000, 50.00000000000000000, 3.000000000000000000 ) ) ;
#44 = DIRECTION ( 'NONE',  ( 0.0000000000000000000, 0.0000000000000000000, -1.000000000000000000 ) ) ;
#45 = PRODUCT_RELATED_PRODUCT_CATEGORY ( 'detail', '', ( #59 ) ) ;
#46 = DIRECTION ( 'NONE',  ( -0.0000000000000000000, -1.000000000000000000, -0.0000000000000000000 ) ) ;
#47 = AXIS2_PLACEMENT_3D ( 'NONE', #183, #139, #25 ) ;
#48 = ORIENTED_EDGE ( 'NONE', *, *, #76, .F. ) ;
#49 =( NAMED_UNIT ( * ) SI_UNIT ( $, .STERADIAN. ) SOLID_ANGLE_UNIT ( ) );
#50 = CC_DESIGN_PERSON_AND_ORGANIZATION_ASSIGNMENT ( #111, #127, ( #218 ) ) ;
#51 = APPROVAL_ROLE ( '' ) ;
#52 = ORIENTED_EDGE ( 'NONE', *, *, #157, .T. ) ;
#53 = CC_DESIGN_PERSON_AND_ORGANIZATION_ASSIGNMENT ( #125, #213, ( #218 ) ) ;
#54 = CC_DESIGN_PERSON_AND_ORGANIZATION_ASSIGNMENT ( #113, #33, ( #4 ) ) ;
#55 = APPROVAL_PERSON_ORGANIZATION ( #105, #71, #142 ) ;
#56 = LINE ( 'NONE', #79, #233 ) ;
#57 = DATE_AND_TIME ( #173, #60 ) ;
#58 = APPROVAL_DATE_TIME ( #165, #95 ) ;
#59 = PRODUCT ( 'Web Model 45855', 'Web Model 45855', '', ( #103 ) ) ;
#60 = LOCAL_TIME ( 10, 18, 43.00000000000000000, #115 ) ;
#61 = DATE_AND_TIME ( #232, #116 ) ;
#62 = ADVANCED_FACE ( 'NONE', ( #220 ), #222, .T. ) ;
#63 = DIRECTION ( 'NONE',  ( -0.0000000000000000000, -0.0000000000000000000, -1.000000000000000000 ) ) ;
#64 = VERTEX_POINT ( 'NONE', #5 ) ;
#65 = APPROVAL_DATE_TIME ( #57, #215 ) ;
#66 = CARTESIAN_POINT ( 'NONE',  ( 50.00000000000000000, 0.0000000000000000000, 3.000000000000000000 ) ) ;
#67 = EDGE_CURVE ( 'NONE', #175, #31, #230, .T. ) ;
#68 = ORIENTED_EDGE ( 'NONE', *, *, #157, .F. ) ;
#69 = PERSON_AND_ORGANIZATION ( #161, #38 ) ;
#70 = DATE_TIME_ROLE ( 'classification_date' ) ;
#71 = APPROVAL ( #217, 'UNSPECIFIED' ) ;
#72 = DATE_TIME_ROLE ( 'creation_date' ) ;
#73 = COORDINATED_UNIVERSAL_TIME_OFFSET ( 5, 0, .BEHIND. ) ;
#74 = ORIENTED_EDGE ( 'NONE', *, *, #30, .F. ) ;
#75 = EDGE_CURVE ( 'NONE', #31, #169, #191, .T. ) ;
#76 = EDGE_CURVE ( 'NONE', #169, #92, #88, .T. ) ;
#77 = PLANE ( 'NONE',  #47 ) ;
#78 = PLANE ( 'NONE',  #107 ) ;
#79 = CARTESIAN_POINT ( 'NONE',  ( 50.00000000000000000, 0.0000000000000000000, 0.0000000000000000000 ) ) ;
#80 = AXIS2_PLACEMENT_3D ( 'NONE', #102, #204, #225 ) ;
#81 = DIRECTION ( 'NONE',  ( 1.000000000000000000, 0.0000000000000000000, 0.0000000000000000000 ) ) ;
#82 = EDGE_LOOP ( 'NONE', ( #52, #22, #96, #190 ) ) ;
#83 = DIRECTION ( 'NONE',  ( -0.0000000000000000000, -0.0000000000000000000, -1.000000000000000000 ) ) ;
#84 = CC_DESIGN_DATE_AND_TIME_ASSIGNMENT ( #211, #70, ( #3 ) ) ;
#85 = CARTESIAN_POINT ( 'NONE',  ( 50.00000000000000000, 50.00000000000000000, 0.0000000000000000000 ) ) ;
#86 = APPROVAL_STATUS ( 'not_yet_approved' ) ;
#87 = EDGE_LOOP ( 'NONE', ( #171, #20, #74, #146 ) ) ;
#88 = LINE ( 'NONE', #206, #196 ) ;
#89 = VECTOR ( 'NONE', #46, 1000.000000000000000 ) ;
#90 = VECTOR ( 'NONE', #156, 1000.000000000000000 ) ;
#91 = AXIS2_PLACEMENT_3D ( 'NONE', #6, #148, #118 ) ;
#92 = VERTEX_POINT ( 'NONE', #131 ) ;
#93 = ADVANCED_FACE ( 'NONE', ( #143 ), #221, .F. ) ;
#94 = LINE ( 'NONE', #119, #236 ) ;
#95 = APPROVAL ( #86, 'UNSPECIFIED' ) ;
#96 = ORIENTED_EDGE ( 'NONE', *, *, #234, .F. ) ;
#97 = DIRECTION ( 'NONE',  ( -0.0000000000000000000, -0.0000000000000000000, -1.000000000000000000 ) ) ;
#98 = DIRECTION ( 'NONE',  ( -1.000000000000000000, -0.0000000000000000000, -0.0000000000000000000 ) ) ;
#99 = VECTOR ( 'NONE', #97, 1000.000000000000000 ) ;
#100 = CARTESIAN_POINT ( 'NONE',  ( 0.0000000000000000000, 0.0000000000000000000, 3.000000000000000000 ) ) ;
#101 = ORIENTED_EDGE ( 'NONE', *, *, #10, .F. ) ;
#102 = CARTESIAN_POINT ( 'NONE',  ( 0.0000000000000000000, 50.00000000000000000, 3.000000000000000000 ) ) ;
#103 = MECHANICAL_CONTEXT ( 'NONE', #106, 'mechanical' ) ;
#104 = VECTOR ( 'NONE', #132, 1000.000000000000000 ) ;
#105 = PERSON_AND_ORGANIZATION ( #161, #38 ) ;
#106 = APPLICATION_CONTEXT ( 'configuration controlled 3d designs of mechanical parts and assemblies' ) ;
#107 = AXIS2_PLACEMENT_3D ( 'NONE', #223, #137, #136 ) ;
#108 = VECTOR ( 'NONE', #83, 1000.000000000000000 ) ;
#109 = DIRECTION ( 'NONE',  ( -1.000000000000000000, -0.0000000000000000000, -0.0000000000000000000 ) ) ;
#110 = ORIENTED_EDGE ( 'NONE', *, *, #7, .T. ) ;
#111 = PERSON_AND_ORGANIZATION ( #161, #38 ) ;
#112 = EDGE_CURVE ( 'NONE', #2, #64, #94, .T. ) ;
#113 = PERSON_AND_ORGANIZATION ( #161, #38 ) ;
#114 = ADVANCED_BREP_SHAPE_REPRESENTATION ( 'Web Model 45855', ( #226, #26 ), #216 ) ;
#115 = COORDINATED_UNIVERSAL_TIME_OFFSET ( 5, 0, .BEHIND. ) ;
#116 = LOCAL_TIME ( 10, 18, 43.00000000000000000, #39 ) ;
#117 = DIRECTION ( 'NONE',  ( 1.000000000000000000, 0.0000000000000000000, 0.0000000000000000000 ) ) ;
#118 = DIRECTION ( 'NONE',  ( 0.0000000000000000000, 0.0000000000000000000, 1.000000000000000000 ) ) ;
#119 = CARTESIAN_POINT ( 'NONE',  ( 0.0000000000000000000, 50.00000000000000000, 0.0000000000000000000 ) ) ;
#120 = VECTOR ( 'NONE', #163, 1000.000000000000000 ) ;
#121 = AXIS2_PLACEMENT_3D ( 'NONE', #153, #184, #149 ) ;
#122 = APPLICATION_PROTOCOL_DEFINITION ( 'international standard', 'config_control_design', 1994, #228 ) ;
#123 = APPROVAL_STATUS ( 'not_yet_approved' ) ;
#124 = CARTESIAN_POINT ( 'NONE',  ( 0.0000000000000000000, 50.00000000000000000, 3.000000000000000000 ) ) ;
#125 = PERSON_AND_ORGANIZATION ( #161, #38 ) ;
#126 = DESIGN_CONTEXT ( 'detailed design', #228, 'design' ) ;
#127 = PERSON_AND_ORGANIZATION_ROLE ( 'creator' ) ;
#128 = CALENDAR_DATE ( 2017, 31, 1 ) ;
#129 = CC_DESIGN_APPROVAL ( #71, ( #4 ) ) ;
#130 = ORIENTED_EDGE ( 'NONE', *, *, #10, .T. ) ;
#131 = CARTESIAN_POINT ( 'NONE',  ( 50.00000000000000000, 0.0000000000000000000, 0.0000000000000000000 ) ) ;
#132 = DIRECTION ( 'NONE',  ( -0.0000000000000000000, -0.0000000000000000000, -1.000000000000000000 ) ) ;
#133 = SHAPE_DEFINITION_REPRESENTATION ( #224, #114 ) ;
#134 = LOCAL_TIME ( 10, 18, 43.00000000000000000, #144 ) ;
#135 = CARTESIAN_POINT ( 'NONE',  ( 50.00000000000000000, 50.00000000000000000, 3.000000000000000000 ) ) ;
#136 = DIRECTION ( 'NONE',  ( -1.000000000000000000, 0.0000000000000000000, -0.0000000000000000000 ) ) ;
#137 = DIRECTION ( 'NONE',  ( 0.0000000000000000000, 0.0000000000000000000, -1.000000000000000000 ) ) ;
#138 = ORIENTED_EDGE ( 'NONE', *, *, #112, .T. ) ;
#139 = DIRECTION ( 'NONE',  ( 0.0000000000000000000, 1.000000000000000000, 0.0000000000000000000 ) ) ;
#140 = LINE ( 'NONE', #168, #90 ) ;
#141 = ORIENTED_EDGE ( 'NONE', *, *, #30, .T. ) ;
#142 = APPROVAL_ROLE ( '' ) ;
#143 = FACE_OUTER_BOUND ( 'NONE', #82, .T. ) ;
#144 = COORDINATED_UNIVERSAL_TIME_OFFSET ( 5, 0, .BEHIND. ) ;
#145 = CLOSED_SHELL ( 'NONE', ( #199, #219, #93, #178, #23, #62 ) ) ;
#146 = ORIENTED_EDGE ( 'NONE', *, *, #75, .T. ) ;
#147 = CARTESIAN_POINT ( 'NONE',  ( 50.00000000000000000, 50.00000000000000000, 3.000000000000000000 ) ) ;
#148 = DIRECTION ( 'NONE',  ( -1.000000000000000000, 0.0000000000000000000, 0.0000000000000000000 ) ) ;
#149 = DIRECTION ( 'NONE',  ( -1.000000000000000000, 0.0000000000000000000, -0.0000000000000000000 ) ) ;
#150 = EDGE_LOOP ( 'NONE', ( #227, #11, #68, #48 ) ) ;
#151 = CARTESIAN_POINT ( 'NONE',  ( 0.0000000000000000000, 0.0000000000000000000, 3.000000000000000000 ) ) ;
#152 = CALENDAR_DATE ( 2017, 31, 1 ) ;
#153 = CARTESIAN_POINT ( 'NONE',  ( 0.0000000000000000000, 50.00000000000000000, 0.0000000000000000000 ) ) ;
#154 = EDGE_CURVE ( 'NONE', #64, #169, #210, .T. ) ;
#155 = VECTOR ( 'NONE', #117, 1000.000000000000000 ) ;
#156 = DIRECTION ( 'NONE',  ( 0.0000000000000000000, 1.000000000000000000, 0.0000000000000000000 ) ) ;
#157 = EDGE_CURVE ( 'NONE', #92, #2, #56, .T. ) ;
#158 = ORIENTED_EDGE ( 'NONE', *, *, #197, .T. ) ;
#159 = LINE ( 'NONE', #202, #155 ) ;
#160 = LOCAL_TIME ( 10, 18, 43.00000000000000000, #73 ) ;
#161 = PERSON ( 'UNSPECIFIED', 'UNSPECIFIED', 'UNSPECIFIED', ('UNSPECIFIED'), ('UNSPECIFIED'), ('UNSPECIFIED') ) ;
#162 = AXIS2_PLACEMENT_3D ( 'NONE', #180, #200, #44 ) ;
#163 = DIRECTION ( 'NONE',  ( -0.0000000000000000000, -1.000000000000000000, -0.0000000000000000000 ) ) ;
#164 = PLANE ( 'NONE',  #80 ) ;
#165 = DATE_AND_TIME ( #152, #160 ) ;
#166 = CARTESIAN_POINT ( 'NONE',  ( 50.00000000000000000, 0.0000000000000000000, 3.000000000000000000 ) ) ;
#167 = DIRECTION ( 'NONE',  ( 0.0000000000000000000, 1.000000000000000000, 0.0000000000000000000 ) ) ;
#168 = CARTESIAN_POINT ( 'NONE',  ( 50.00000000000000000, 0.0000000000000000000, 3.000000000000000000 ) ) ;
#169 = VERTEX_POINT ( 'NONE', #201 ) ;
#170 = CARTESIAN_POINT ( 'NONE',  ( 0.0000000000000000000, 0.0000000000000000000, 0.0000000000000000000 ) ) ;
#171 = ORIENTED_EDGE ( 'NONE', *, *, #76, .T. ) ;
#172 = CALENDAR_DATE ( 2017, 31, 1 ) ;
#173 = CALENDAR_DATE ( 2017, 31, 1 ) ;
#174 = CC_DESIGN_PERSON_AND_ORGANIZATION_ASSIGNMENT ( #176, #229, ( #59 ) ) ;
#175 = VERTEX_POINT ( 'NONE', #43 ) ;
#176 = PERSON_AND_ORGANIZATION ( #161, #38 ) ;
#177 = FACE_OUTER_BOUND ( 'NONE', #87, .T. ) ;
#178 = ADVANCED_FACE ( 'NONE', ( #231 ), #164, .F. ) ;
#179 = ORIENTED_EDGE ( 'NONE', *, *, #7, .F. ) ;
#180 = CARTESIAN_POINT ( 'NONE',  ( 0.0000000000000000000, 0.0000000000000000000, 3.000000000000000000 ) ) ;
#181 = VERTEX_POINT ( 'NONE', #66 ) ;
#182 = DIRECTION ( 'NONE',  ( 1.000000000000000000, 0.0000000000000000000, 0.0000000000000000000 ) ) ;
#183 = CARTESIAN_POINT ( 'NONE',  ( 0.0000000000000000000, 0.0000000000000000000, 3.000000000000000000 ) ) ;
#184 = DIRECTION ( 'NONE',  ( 0.0000000000000000000, 0.0000000000000000000, -1.000000000000000000 ) ) ;
#185 = EDGE_LOOP ( 'NONE', ( #27, #203, #193, #130 ) ) ;
#186 =( LENGTH_UNIT ( ) NAMED_UNIT ( * ) SI_UNIT ( .MILLI., .METRE. ) );
#187 = LINE ( 'NONE', #34, #108 ) ;
#188 = LINE ( 'NONE', #166, #99 ) ;
#189 = APPROVAL_ROLE ( '' ) ;
#190 = ORIENTED_EDGE ( 'NONE', *, *, #212, .T. ) ;
#191 = LINE ( 'NONE', #151, #104 ) ;
#192 = VECTOR ( 'NONE', #63, 1000.000000000000000 ) ;
#193 = ORIENTED_EDGE ( 'NONE', *, *, #67, .F. ) ;
#194 = APPROVAL_PERSON_ORGANIZATION ( #69, #95, #189 ) ;
#195 = CC_DESIGN_PERSON_AND_ORGANIZATION_ASSIGNMENT ( #19, #18, ( #3 ) ) ;
#196 = VECTOR ( 'NONE', #182, 1000.000000000000000 ) ;
#197 = EDGE_CURVE ( 'NONE', #17, #2, #15, .T. ) ;
#198 = FACE_OUTER_BOUND ( 'NONE', #235, .T. ) ;
#199 = ADVANCED_FACE ( 'NONE', ( #8 ), #12, .F. ) ;
#200 = DIRECTION ( 'NONE',  ( 1.000000000000000000, 0.0000000000000000000, 0.0000000000000000000 ) ) ;
#201 = CARTESIAN_POINT ( 'NONE',  ( 0.0000000000000000000, 0.0000000000000000000, 0.0000000000000000000 ) ) ;
#202 = CARTESIAN_POINT ( 'NONE',  ( 0.0000000000000000000, 0.0000000000000000000, 3.000000000000000000 ) ) ;
#203 = ORIENTED_EDGE ( 'NONE', *, *, #75, .F. ) ;
#204 = DIRECTION ( 'NONE',  ( 0.0000000000000000000, -1.000000000000000000, 0.0000000000000000000 ) ) ;
#205 = COORDINATED_UNIVERSAL_TIME_OFFSET ( 5, 0, .BEHIND. ) ;
#206 = CARTESIAN_POINT ( 'NONE',  ( 0.0000000000000000000, 0.0000000000000000000, 0.0000000000000000000 ) ) ;
#207 = APPLICATION_PROTOCOL_DEFINITION ( 'international standard', 'config_control_design', 1994, #106 ) ;
#208 =( NAMED_UNIT ( * ) PLANE_ANGLE_UNIT ( ) SI_UNIT ( $, .RADIAN. ) );
#209 = ORIENTED_EDGE ( 'NONE', *, *, #67, .T. ) ;
#210 = LINE ( 'NONE', #41, #89 ) ;
#211 = DATE_AND_TIME ( #172, #24 ) ;
#212 = EDGE_CURVE ( 'NONE', #181, #92, #188, .T. ) ;
#213 = PERSON_AND_ORGANIZATION_ROLE ( 'design_supplier' ) ;
#214 = LINE ( 'NONE', #124, #14 ) ;
#215 = APPROVAL ( #123, 'UNSPECIFIED' ) ;
#216 =( GEOMETRIC_REPRESENTATION_CONTEXT ( 3 ) GLOBAL_UNCERTAINTY_ASSIGNED_CONTEXT ( ( #37 ) ) GLOBAL_UNIT_ASSIGNED_CONTEXT ( ( #186, #208, #49 ) ) REPRESENTATION_CONTEXT ( 'NONE', 'WORKASPACE' ) );
#217 = APPROVAL_STATUS ( 'not_yet_approved' ) ;
#218 = PRODUCT_DEFINITION_FORMATION_WITH_SPECIFIED_SOURCE ( 'ANY', '', #59, .NOT_KNOWN. ) ;
#219 = ADVANCED_FACE ( 'NONE', ( #177 ), #77, .F. ) ;
#220 = FACE_OUTER_BOUND ( 'NONE', #150, .T. ) ;
#221 = PLANE ( 'NONE',  #91 ) ;
#222 = PLANE ( 'NONE',  #121 ) ;
#223 = CARTESIAN_POINT ( 'NONE',  ( 0.0000000000000000000, 50.00000000000000000, 3.000000000000000000 ) ) ;
#224 = PRODUCT_DEFINITION_SHAPE ( 'NONE', 'NONE',  #4 ) ;
#225 = DIRECTION ( 'NONE',  ( 0.0000000000000000000, -0.0000000000000000000, -1.000000000000000000 ) ) ;
#226 = MANIFOLD_SOLID_BREP ( 'Extrude1', #145 ) ;
#227 = ORIENTED_EDGE ( 'NONE', *, *, #154, .F. ) ;
#228 = APPLICATION_CONTEXT ( 'configuration controlled 3d designs of mechanical parts and assemblies' ) ;
#229 = PERSON_AND_ORGANIZATION_ROLE ( 'design_owner' ) ;
#230 = LINE ( 'NONE', #100, #120 ) ;
#231 = FACE_OUTER_BOUND ( 'NONE', #40, .T. ) ;
#232 = CALENDAR_DATE ( 2017, 31, 1 ) ;
#233 = VECTOR ( 'NONE', #167, 1000.000000000000000 ) ;
#234 = EDGE_CURVE ( 'NONE', #181, #17, #140, .T. ) ;
#235 = EDGE_LOOP ( 'NONE', ( #209, #141, #36, #110 ) ) ;
#236 = VECTOR ( 'NONE', #98, 1000.000000000000000 ) ;
#237 = APPROVAL_PERSON_ORGANIZATION ( #42, #215, #51 ) ;
ENDSEC;
END-ISO-10303-21;
