ISO-10303-21;
HEADER;
FILE_DESCRIPTION (( 'STEP AP203' ),
    '1' );
FILE_NAME ('Web Model 14964_14977.step',
    '2020-07-27T18:43:07',
    ( '' ),
    ( '' ),
    'SwSTEP 2.0',
    'SolidWorks 2018',
    '' );
FILE_SCHEMA (( 'CONFIG_CONTROL_DESIGN' ));
ENDSEC;

DATA;
#1 = CALENDAR_DATE ( 2020, 27, 7 ) ;
#2 = APPROVAL_STATUS ( 'not_yet_approved' ) ;
#3 = DIRECTION ( 'NONE',  ( 1.000000000000000000, 0.0000000000000000000, 0.0000000000000000000 ) ) ;
#4 = APPROVAL_ROLE ( '' ) ;
#5 = DATE_AND_TIME ( #60, #89 ) ;
#6 = CIRCLE ( 'NONE', #104, 12.50000000000000000 ) ;
#7 = ORIENTED_EDGE ( 'NONE', *, *, #62, .F. ) ;
#8 = ADVANCED_FACE ( 'NONE', ( #48 ), #72, .T. ) ;
#9 = PRODUCT_DEFINITION ( 'UNKNOWN', '', #83, #85 ) ;
#10 = DIRECTION ( 'NONE',  ( 1.000000000000000000, 0.0000000000000000000, 0.0000000000000000000 ) ) ;
#11 = PLANE ( 'NONE',  #100 ) ;
#12 = EDGE_LOOP ( 'NONE', ( #7, #41, #52, #155 ) ) ;
#13 = CARTESIAN_POINT ( 'NONE',  ( 2.000000000000000000, 0.0000000000000000000, 12.50000000000000000 ) ) ;
#14 = PERSON_AND_ORGANIZATION_ROLE ( 'creator' ) ;
#15 = EDGE_LOOP ( 'NONE', ( #158, #163, #73, #102 ) ) ;
#16 = APPROVAL_ROLE ( '' ) ;
#17 = LINE ( 'NONE', #147, #156 ) ;
#18 = ORIENTED_EDGE ( 'NONE', *, *, #62, .T. ) ;
#19 = COORDINATED_UNIVERSAL_TIME_OFFSET ( 5, 0, .BEHIND. ) ;
#20 = CC_DESIGN_DATE_AND_TIME_ASSIGNMENT ( #169, #149, ( #50 ) ) ;
#21 = FACE_OUTER_BOUND ( 'NONE', #12, .T. ) ;
#22 = DIRECTION ( 'NONE',  ( 0.0000000000000000000, 0.0000000000000000000, 1.000000000000000000 ) ) ;
#23 = FACE_OUTER_BOUND ( 'NONE', #70, .T. ) ;
#24 = DIRECTION ( 'NONE',  ( -1.000000000000000000, -0.0000000000000000000, -0.0000000000000000000 ) ) ;
#25 =( NAMED_UNIT ( * ) SI_UNIT ( $, .STERADIAN. ) SOLID_ANGLE_UNIT ( ) );
#26 = ADVANCED_FACE ( 'NONE', ( #142 ), #66, .T. ) ;
#27 = MECHANICAL_CONTEXT ( 'NONE', #95, 'mechanical' ) ;
#28 = DIRECTION ( 'NONE',  ( 0.0000000000000000000, 0.0000000000000000000, 1.000000000000000000 ) ) ;
#29 = CALENDAR_DATE ( 2020, 27, 7 ) ;
#30 = DATE_AND_TIME ( #171, #47 ) ;
#31 = CC_DESIGN_PERSON_AND_ORGANIZATION_ASSIGNMENT ( #173, #54, ( #170 ) ) ;
#32 = CIRCLE ( 'NONE', #80, 12.50000000000000000 ) ;
#33 = CARTESIAN_POINT ( 'NONE',  ( -2.000000000000000000, 0.0000000000000000000, 12.50000000000000000 ) ) ;
#34 = AXIS2_PLACEMENT_3D ( 'NONE', #94, #28, #3 ) ;
#35 = CARTESIAN_POINT ( 'NONE',  ( -2.000000000000000000, 0.0000000000000000000, 0.0000000000000000000 ) ) ;
#36 = DIRECTION ( 'NONE',  ( 0.0000000000000000000, 0.0000000000000000000, -1.000000000000000000 ) ) ;
#37 = AXIS2_PLACEMENT_3D ( 'NONE', #77, #107, #119 ) ;
#38 = VERTEX_POINT ( 'NONE', #33 ) ;
#39 = APPLICATION_PROTOCOL_DEFINITION ( 'international standard', 'config_control_design', 1994, #150 ) ;
#40 =( NAMED_UNIT ( * ) PLANE_ANGLE_UNIT ( ) SI_UNIT ( $, .RADIAN. ) );
#41 = ORIENTED_EDGE ( 'NONE', *, *, #69, .T. ) ;
#42 = LOCAL_TIME ( 14, 43, 7.000000000000000000, #46 ) ;
#43 = EDGE_CURVE ( 'NONE', #108, #116, #6, .T. ) ;
#44 = DATE_AND_TIME ( #29, #126 ) ;
#45 = ORIENTED_EDGE ( 'NONE', *, *, #103, .F. ) ;
#46 = COORDINATED_UNIVERSAL_TIME_OFFSET ( 5, 0, .BEHIND. ) ;
#47 = LOCAL_TIME ( 14, 43, 7.000000000000000000, #64 ) ;
#48 = FACE_OUTER_BOUND ( 'NONE', #124, .T. ) ;
#49 = DIRECTION ( 'NONE',  ( 1.000000000000000000, 0.0000000000000000000, 0.0000000000000000000 ) ) ;
#50 = SECURITY_CLASSIFICATION ( '', '', #110 ) ;
#51 = DIRECTION ( 'NONE',  ( 1.000000000000000000, 0.0000000000000000000, 0.0000000000000000000 ) ) ;
#52 = ORIENTED_EDGE ( 'NONE', *, *, #103, .T. ) ;
#53 = PERSON_AND_ORGANIZATION_ROLE ( 'creator' ) ;
#54 = PERSON_AND_ORGANIZATION_ROLE ( 'design_owner' ) ;
#55 = PERSON_AND_ORGANIZATION_ROLE ( 'classification_officer' ) ;
#56 = EDGE_CURVE ( 'NONE', #38, #82, #32, .T. ) ;
#57 = ADVANCED_FACE ( 'NONE', ( #23 ), #11, .F. ) ;
#58 = ADVANCED_FACE ( 'NONE', ( #21 ), #97, .T. ) ;
#59 = AXIS2_PLACEMENT_3D ( 'NONE', #76, #61, #36 ) ;
#60 = CALENDAR_DATE ( 2020, 27, 7 ) ;
#61 = DIRECTION ( 'NONE',  ( 1.000000000000000000, 0.0000000000000000000, 0.0000000000000000000 ) ) ;
#62 = EDGE_CURVE ( 'NONE', #116, #108, #167, .T. ) ;
#63 = APPROVAL_ROLE ( '' ) ;
#64 = COORDINATED_UNIVERSAL_TIME_OFFSET ( 5, 0, .BEHIND. ) ;
#65 = APPROVAL_STATUS ( 'not_yet_approved' ) ;
#66 = CYLINDRICAL_SURFACE ( 'NONE', #129, 12.50000000000000000 ) ;
#67 = LOCAL_TIME ( 14, 43, 7.000000000000000000, #19 ) ;
#68 = CALENDAR_DATE ( 2020, 27, 7 ) ;
#69 = EDGE_CURVE ( 'NONE', #116, #82, #134, .T. ) ;
#70 = EDGE_LOOP ( 'NONE', ( #112, #45 ) ) ;
#71 = VECTOR ( 'NONE', #137, 1000.000000000000000 ) ;
#72 = PLANE ( 'NONE',  #91 ) ;
#73 = ORIENTED_EDGE ( 'NONE', *, *, #172, .T. ) ;
#74 = CARTESIAN_POINT ( 'NONE',  ( 2.000000000000000000, 0.0000000000000000000, 0.0000000000000000000 ) ) ;
#75 = ADVANCED_BREP_SHAPE_REPRESENTATION ( 'Web Model 14964_14977', ( #143, #34 ), #105 ) ;
#76 = CARTESIAN_POINT ( 'NONE',  ( 2.000000000000000000, 0.0000000000000000000, 0.0000000000000000000 ) ) ;
#77 = CARTESIAN_POINT ( 'NONE',  ( -2.000000000000000000, 0.0000000000000000000, 0.0000000000000000000 ) ) ;
#78 = CC_DESIGN_PERSON_AND_ORGANIZATION_ASSIGNMENT ( #131, #55, ( #50 ) ) ;
#79 = COORDINATED_UNIVERSAL_TIME_OFFSET ( 5, 0, .BEHIND. ) ;
#80 = AXIS2_PLACEMENT_3D ( 'NONE', #161, #51, #146 ) ;
#81 = COORDINATED_UNIVERSAL_TIME_OFFSET ( 5, 0, .BEHIND. ) ;
#82 = VERTEX_POINT ( 'NONE', #165 ) ;
#83 = PRODUCT_DEFINITION_FORMATION_WITH_SPECIFIED_SOURCE ( 'ANY', '', #170, .NOT_KNOWN. ) ;
#84 = CC_DESIGN_DATE_AND_TIME_ASSIGNMENT ( #30, #123, ( #9 ) ) ;
#85 = DESIGN_CONTEXT ( 'detailed design', #150, 'design' ) ;
#86 = CARTESIAN_POINT ( 'NONE',  ( 2.000000000000000000, 0.0000000000000000000, 0.0000000000000000000 ) ) ;
#87 = CC_DESIGN_APPROVAL ( #113, ( #9 ) ) ;
#88 = DIRECTION ( 'NONE',  ( 0.0000000000000000000, 0.0000000000000000000, -1.000000000000000000 ) ) ;
#89 = LOCAL_TIME ( 14, 43, 7.000000000000000000, #81 ) ;
#90 = CARTESIAN_POINT ( 'NONE',  ( 2.000000000000000000, 0.0000000000000000000, 0.0000000000000000000 ) ) ;
#91 = AXIS2_PLACEMENT_3D ( 'NONE', #174, #164, #92 ) ;
#92 = DIRECTION ( 'NONE',  ( 0.0000000000000000000, 0.0000000000000000000, -1.000000000000000000 ) ) ;
#93 = AXIS2_PLACEMENT_3D ( 'NONE', #86, #135, #175 ) ;
#94 = CARTESIAN_POINT ( 'NONE',  ( 0.0000000000000000000, 0.0000000000000000000, 0.0000000000000000000 ) ) ;
#95 = APPLICATION_CONTEXT ( 'configuration controlled 3d designs of mechanical parts and assemblies' ) ;
#96 = CC_DESIGN_SECURITY_CLASSIFICATION ( #50, ( #83 ) ) ;
#97 = CYLINDRICAL_SURFACE ( 'NONE', #93, 12.50000000000000000 ) ;
#98 = CC_DESIGN_PERSON_AND_ORGANIZATION_ASSIGNMENT ( #159, #53, ( #83 ) ) ;
#99 = PRODUCT_DEFINITION_SHAPE ( 'NONE', 'NONE',  #9 ) ;
#100 = AXIS2_PLACEMENT_3D ( 'NONE', #35, #10, #88 ) ;
#101 = APPROVAL ( #122, 'UNSPECIFIED' ) ;
#102 = ORIENTED_EDGE ( 'NONE', *, *, #56, .T. ) ;
#103 = EDGE_CURVE ( 'NONE', #82, #38, #115, .T. ) ;
#104 = AXIS2_PLACEMENT_3D ( 'NONE', #74, #49, #133 ) ;
#105 =( GEOMETRIC_REPRESENTATION_CONTEXT ( 3 ) GLOBAL_UNCERTAINTY_ASSIGNED_CONTEXT ( ( #114 ) ) GLOBAL_UNIT_ASSIGNED_CONTEXT ( ( #139, #40, #25 ) ) REPRESENTATION_CONTEXT ( 'NONE', 'WORKASPACE' ) );
#106 = CC_DESIGN_PERSON_AND_ORGANIZATION_ASSIGNMENT ( #117, #121, ( #83 ) ) ;
#107 = DIRECTION ( 'NONE',  ( 1.000000000000000000, 0.0000000000000000000, 0.0000000000000000000 ) ) ;
#108 = VERTEX_POINT ( 'NONE', #13 ) ;
#109 = CC_DESIGN_APPROVAL ( #132, ( #50 ) ) ;
#110 = SECURITY_CLASSIFICATION_LEVEL ( 'unclassified' ) ;
#111 = ORGANIZATION ( 'UNSPECIFIED', 'UNSPECIFIED', '' ) ;
#112 = ORIENTED_EDGE ( 'NONE', *, *, #56, .F. ) ;
#113 = APPROVAL ( #65, 'UNSPECIFIED' ) ;
#114 = UNCERTAINTY_MEASURE_WITH_UNIT (LENGTH_MEASURE( 1.000000000000000082E-05 ), #139, 'distance_accuracy_value', 'NONE');
#115 = CIRCLE ( 'NONE', #37, 12.50000000000000000 ) ;
#116 = VERTEX_POINT ( 'NONE', #136 ) ;
#117 = PERSON_AND_ORGANIZATION ( #127, #111 ) ;
#118 = APPROVAL_PERSON_ORGANIZATION ( #168, #113, #4 ) ;
#119 = DIRECTION ( 'NONE',  ( 0.0000000000000000000, 0.0000000000000000000, -1.000000000000000000 ) ) ;
#120 = APPLICATION_PROTOCOL_DEFINITION ( 'international standard', 'config_control_design', 1994, #95 ) ;
#121 = PERSON_AND_ORGANIZATION_ROLE ( 'design_supplier' ) ;
#122 = APPROVAL_STATUS ( 'not_yet_approved' ) ;
#123 = DATE_TIME_ROLE ( 'creation_date' ) ;
#124 = EDGE_LOOP ( 'NONE', ( #128, #18 ) ) ;
#125 = PERSON_AND_ORGANIZATION ( #127, #111 ) ;
#126 = LOCAL_TIME ( 14, 43, 7.000000000000000000, #79 ) ;
#127 = PERSON ( 'UNSPECIFIED', 'UNSPECIFIED', 'UNSPECIFIED', ('UNSPECIFIED'), ('UNSPECIFIED'), ('UNSPECIFIED') ) ;
#128 = ORIENTED_EDGE ( 'NONE', *, *, #43, .T. ) ;
#129 = AXIS2_PLACEMENT_3D ( 'NONE', #90, #24, #22 ) ;
#130 = APPROVAL_PERSON_ORGANIZATION ( #154, #101, #16 ) ;
#131 = PERSON_AND_ORGANIZATION ( #127, #111 ) ;
#132 = APPROVAL ( #2, 'UNSPECIFIED' ) ;
#133 = DIRECTION ( 'NONE',  ( 0.0000000000000000000, 0.0000000000000000000, -1.000000000000000000 ) ) ;
#134 = LINE ( 'NONE', #145, #71 ) ;
#135 = DIRECTION ( 'NONE',  ( -1.000000000000000000, -0.0000000000000000000, -0.0000000000000000000 ) ) ;
#136 = CARTESIAN_POINT ( 'NONE',  ( 2.000000000000000000, 1.530808498934191521E-15, -12.50000000000000000 ) ) ;
#137 = DIRECTION ( 'NONE',  ( -1.000000000000000000, -0.0000000000000000000, -0.0000000000000000000 ) ) ;
#138 = APPROVAL_PERSON_ORGANIZATION ( #125, #132, #63 ) ;
#139 =( LENGTH_UNIT ( ) NAMED_UNIT ( * ) SI_UNIT ( .MILLI., .METRE. ) );
#140 = APPROVAL_DATE_TIME ( #5, #113 ) ;
#141 = DATE_AND_TIME ( #68, #42 ) ;
#142 = FACE_OUTER_BOUND ( 'NONE', #15, .T. ) ;
#143 = MANIFOLD_SOLID_BREP ( 'Boss-Extrude1', #148 ) ;
#144 = CC_DESIGN_PERSON_AND_ORGANIZATION_ASSIGNMENT ( #162, #14, ( #9 ) ) ;
#145 = CARTESIAN_POINT ( 'NONE',  ( 2.000000000000000000, 1.530808498934191521E-15, -12.50000000000000000 ) ) ;
#146 = DIRECTION ( 'NONE',  ( 0.0000000000000000000, 0.0000000000000000000, -1.000000000000000000 ) ) ;
#147 = CARTESIAN_POINT ( 'NONE',  ( 2.000000000000000000, 0.0000000000000000000, 12.50000000000000000 ) ) ;
#148 = CLOSED_SHELL ( 'NONE', ( #58, #26, #8, #57 ) ) ;
#149 = DATE_TIME_ROLE ( 'classification_date' ) ;
#150 = APPLICATION_CONTEXT ( 'configuration controlled 3d designs of mechanical parts and assemblies' ) ;
#151 = APPROVAL_DATE_TIME ( #141, #132 ) ;
#152 = APPROVAL_DATE_TIME ( #44, #101 ) ;
#153 = PRODUCT_RELATED_PRODUCT_CATEGORY ( 'detail', '', ( #170 ) ) ;
#154 = PERSON_AND_ORGANIZATION ( #127, #111 ) ;
#155 = ORIENTED_EDGE ( 'NONE', *, *, #172, .F. ) ;
#156 = VECTOR ( 'NONE', #160, 1000.000000000000000 ) ;
#157 = SHAPE_DEFINITION_REPRESENTATION ( #99, #75 ) ;
#158 = ORIENTED_EDGE ( 'NONE', *, *, #69, .F. ) ;
#159 = PERSON_AND_ORGANIZATION ( #127, #111 ) ;
#160 = DIRECTION ( 'NONE',  ( -1.000000000000000000, -0.0000000000000000000, -0.0000000000000000000 ) ) ;
#161 = CARTESIAN_POINT ( 'NONE',  ( -2.000000000000000000, 0.0000000000000000000, 0.0000000000000000000 ) ) ;
#162 = PERSON_AND_ORGANIZATION ( #127, #111 ) ;
#163 = ORIENTED_EDGE ( 'NONE', *, *, #43, .F. ) ;
#164 = DIRECTION ( 'NONE',  ( 1.000000000000000000, 0.0000000000000000000, 0.0000000000000000000 ) ) ;
#165 = CARTESIAN_POINT ( 'NONE',  ( -2.000000000000000000, 1.530808498934191521E-15, -12.50000000000000000 ) ) ;
#166 = CC_DESIGN_APPROVAL ( #101, ( #83 ) ) ;
#167 = CIRCLE ( 'NONE', #59, 12.50000000000000000 ) ;
#168 = PERSON_AND_ORGANIZATION ( #127, #111 ) ;
#169 = DATE_AND_TIME ( #1, #67 ) ;
#170 = PRODUCT ( 'Web Model 14964_14977', 'Web Model 14964_14977', '', ( #27 ) ) ;
#171 = CALENDAR_DATE ( 2020, 27, 7 ) ;
#172 = EDGE_CURVE ( 'NONE', #108, #38, #17, .T. ) ;
#173 = PERSON_AND_ORGANIZATION ( #127, #111 ) ;
#174 = CARTESIAN_POINT ( 'NONE',  ( 2.000000000000000000, 0.0000000000000000000, 0.0000000000000000000 ) ) ;
#175 = DIRECTION ( 'NONE',  ( 0.0000000000000000000, 0.0000000000000000000, 1.000000000000000000 ) ) ;
ENDSEC;
END-ISO-10303-21;
