ISO-10303-21;
HEADER;
FILE_DESCRIPTION (( 'STEP AP214' ),
    '1' );
FILE_NAME ('3255-E0W.STEP',
    '2009-12-21T16:55:55',
    ( ' ' ),
    ( ' ' ),
    'SwSTEP 2.0',
    'SolidWorks 2009',
    '' );
FILE_SCHEMA (( 'AUTOMOTIVE_DESIGN' ));
ENDSEC;

DATA;
#1 =( LENGTH_UNIT ( ) NAMED_UNIT ( * ) SI_UNIT ( .MILLI., .METRE. ) );
#2 = MECHANICAL_DESIGN_GEOMETRIC_PRESENTATION_REPRESENTATION (  '', ( #4 ), #81 ) ;
#3 = PRESENTATION_LAYER_ASSIGNMENT (  '', '', ( #4 ) ) ;
#4 = STYLED_ITEM ( 'NONE', ( #5 ), #98 ) ;
#5 = PRESENTATION_STYLE_ASSIGNMENT (( #6 ) ) ;
#6 = SURFACE_STYLE_USAGE ( .BOTH. , #47 ) ;
#7 = CARTESIAN_POINT ( 'NONE',  ( 0.0000000000000000000, 0.0000000000000000000, -88.68499999999998800 ) ) ;
#8 = AXIS2_PLACEMENT_3D ( 'NONE', #7, #95, #94 ) ;
#9 = CIRCLE ( 'NONE', #8, 90.12999999999998100 ) ;
#10 = FACE_OUTER_BOUND ( 'NONE', #82, .T. ) ;
#11 = DIRECTION ( 'NONE',  ( 1.000000000000000000, 0.0000000000000000000, 0.0000000000000000000 ) ) ;
#12 = DIRECTION ( 'NONE',  ( -0.0000000000000000000, -0.0000000000000000000, 1.000000000000000000 ) ) ;
#13 = ORIENTED_EDGE ( 'NONE', *, *, #52, .F. ) ;
#14 = ORIENTED_EDGE ( 'NONE', *, *, #158, .T. ) ;
#15 =( NAMED_UNIT ( * ) SI_UNIT ( $, .STERADIAN. ) SOLID_ANGLE_UNIT ( ) );
#16 =( NAMED_UNIT ( * ) PLANE_ANGLE_UNIT ( ) SI_UNIT ( $, .RADIAN. ) );
#17 = ORIENTED_EDGE ( 'NONE', *, *, #18, .F. ) ;
#18 = EDGE_CURVE ( 'NONE', #65, #169, #143, .T. ) ;
#19 = MECHANICAL_DESIGN_GEOMETRIC_PRESENTATION_REPRESENTATION (  '', ( #21 ), #113 ) ;
#20 = PRESENTATION_LAYER_ASSIGNMENT (  '', '', ( #21 ) ) ;
#21 = STYLED_ITEM ( 'NONE', ( #22 ), #60 ) ;
#22 = PRESENTATION_STYLE_ASSIGNMENT (( #23 ) ) ;
#23 = SURFACE_STYLE_USAGE ( .BOTH. , #24 ) ;
#24 = SURFACE_SIDE_STYLE ('',( #147 ) ) ;
#25 = UNCERTAINTY_MEASURE_WITH_UNIT (LENGTH_MEASURE( 1.000000000000000100E-005 ), #58, 'distance_accuracy_value', 'NONE');
#26 =( NAMED_UNIT ( * ) SI_UNIT ( $, .STERADIAN. ) SOLID_ANGLE_UNIT ( ) );
#27 = MECHANICAL_DESIGN_GEOMETRIC_PRESENTATION_REPRESENTATION (  '', ( #29 ), #117 ) ;
#28 = PRESENTATION_LAYER_ASSIGNMENT (  '', '', ( #29 ) ) ;
#29 = STYLED_ITEM ( 'NONE', ( #30 ), #59 ) ;
#30 = PRESENTATION_STYLE_ASSIGNMENT (( #127 ) ) ;
#31 = CARTESIAN_POINT ( 'NONE',  ( 0.0000000000000000000, 0.0000000000000000000, 0.5457508653827344300 ) ) ;
#32 = AXIS2_PLACEMENT_3D ( 'NONE', #31, #12, #11 ) ;
#33 = CIRCLE ( 'NONE', #32, 12.69999999999999900 ) ;
#34 = CLOSED_SHELL ( 'NONE', ( #118, #100, #60, #96, #59 ) ) ;
#35 = DIRECTION ( 'NONE',  ( 1.000000000000000000, 0.0000000000000000000, 0.0000000000000000000 ) ) ;
#36 = DIRECTION ( 'NONE',  ( -0.0000000000000000000, -0.0000000000000000000, 1.000000000000000000 ) ) ;
#37 = AXIS2_PLACEMENT_3D ( 'NONE', #103, #36, #35 ) ;
#38 = CARTESIAN_POINT ( 'NONE',  ( 0.0000000000000000000, 0.0000000000000000000, 0.5457508653827344300 ) ) ;
#39 =( LENGTH_UNIT ( ) NAMED_UNIT ( * ) SI_UNIT ( .MILLI., .METRE. ) );
#40 = ORIENTED_EDGE ( 'NONE', *, *, #41, .T. ) ;
#41 = EDGE_CURVE ( 'NONE', #146, #99, #55, .T. ) ;
#42 = FILL_AREA_STYLE ('',( #43 ) ) ;
#43 = FILL_AREA_STYLE_COLOUR ( '', #49 ) ;
#44 = DIRECTION ( 'NONE',  ( 1.000000000000000000, 0.0000000000000000000, 0.0000000000000000000 ) ) ;
#45 = DIRECTION ( 'NONE',  ( -0.0000000000000000000, -0.0000000000000000000, 1.000000000000000000 ) ) ;
#46 = CARTESIAN_POINT ( 'NONE',  ( 0.0000000000000000000, 0.0000000000000000000, 4.308132045400366600 ) ) ;
#47 = SURFACE_SIDE_STYLE ('',( #48 ) ) ;
#48 = SURFACE_STYLE_FILL_AREA ( #42 ) ;
#49 = COLOUR_RGB ( '',0.7960784313725489700, 0.8235294117647058400, 0.9372549019607843100 ) ;
#50 = ORIENTED_EDGE ( 'NONE', *, *, #41, .F. ) ;
#51 = ORIENTED_EDGE ( 'NONE', *, *, #157, .F. ) ;
#52 = EDGE_CURVE ( 'NONE', #169, #53, #133, .T. ) ;
#53 = VERTEX_POINT ( 'NONE', #135 ) ;
#54 = ORIENTED_EDGE ( 'NONE', *, *, #170, .T. ) ;
#55 = CIRCLE ( 'NONE', #37, 12.69999999999999900 ) ;
#56 = DIRECTION ( 'NONE',  ( 1.000000000000000000, 0.0000000000000000000, 0.0000000000000000000 ) ) ;
#57 =( NAMED_UNIT ( * ) PLANE_ANGLE_UNIT ( ) SI_UNIT ( $, .RADIAN. ) );
#58 =( LENGTH_UNIT ( ) NAMED_UNIT ( * ) SI_UNIT ( .MILLI., .METRE. ) );
#59 = ADVANCED_FACE ( 'NONE', ( #142 ), #120, .F. ) ;
#60 = ADVANCED_FACE ( 'NONE', ( #153 ), #112, .T. ) ;
#61 =( GEOMETRIC_REPRESENTATION_CONTEXT ( 3 ) GLOBAL_UNCERTAINTY_ASSIGNED_CONTEXT ( ( #62 ) ) GLOBAL_UNIT_ASSIGNED_CONTEXT ( ( #68, #64, #63 ) ) REPRESENTATION_CONTEXT ( 'NONE', 'WORKASPACE' ) );
#62 = UNCERTAINTY_MEASURE_WITH_UNIT (LENGTH_MEASURE( 1.000000000000000100E-005 ), #68, 'distance_accuracy_value', 'NONE');
#63 =( NAMED_UNIT ( * ) SI_UNIT ( $, .STERADIAN. ) SOLID_ANGLE_UNIT ( ) );
#64 =( NAMED_UNIT ( * ) PLANE_ANGLE_UNIT ( ) SI_UNIT ( $, .RADIAN. ) );
#65 = VERTEX_POINT ( 'NONE', #161 ) ;
#66 = ORIENTED_EDGE ( 'NONE', *, *, #67, .F. ) ;
#67 = EDGE_CURVE ( 'NONE', #126, #65, #33, .T. ) ;
#68 =( LENGTH_UNIT ( ) NAMED_UNIT ( * ) SI_UNIT ( .MILLI., .METRE. ) );
#69 = MECHANICAL_DESIGN_GEOMETRIC_PRESENTATION_REPRESENTATION (  '', ( #71 ), #61 ) ;
#70 = PRESENTATION_LAYER_ASSIGNMENT (  '', '', ( #71 ) ) ;
#71 = STYLED_ITEM ( 'NONE', ( #72 ), #100 ) ;
#72 = PRESENTATION_STYLE_ASSIGNMENT (( #73 ) ) ;
#73 = SURFACE_STYLE_USAGE ( .BOTH. , #74 ) ;
#74 = SURFACE_SIDE_STYLE ('',( #75 ) ) ;
#75 = SURFACE_STYLE_FILL_AREA ( #76 ) ;
#76 = FILL_AREA_STYLE ('',( #77 ) ) ;
#77 = FILL_AREA_STYLE_COLOUR ( '', #78 ) ;
#78 = COLOUR_RGB ( '',0.9568627450980391500, 0.9490196078431372100, 0.9607843137254902200 ) ;
#79 = FACE_OUTER_BOUND ( 'NONE', #104, .T. ) ;
#80 = CARTESIAN_POINT ( 'NONE',  ( 12.69999999999999900, 0.0000000000000000000, -1.445000000000000100 ) ) ;
#81 =( GEOMETRIC_REPRESENTATION_CONTEXT ( 3 ) GLOBAL_UNCERTAINTY_ASSIGNED_CONTEXT ( ( #114 ) ) GLOBAL_UNIT_ASSIGNED_CONTEXT ( ( #1, #116, #115 ) ) REPRESENTATION_CONTEXT ( 'NONE', 'WORKASPACE' ) );
#82 = EDGE_LOOP ( 'NONE', ( #144, #40, #97, #51, #13 ) ) ;
#83 = ORIENTED_EDGE ( 'NONE', *, *, #52, .T. ) ;
#84 = ORIENTED_EDGE ( 'NONE', *, *, #85, .F. ) ;
#85 = EDGE_CURVE ( 'NONE', #65, #171, #9, .T. ) ;
#86 = STYLED_ITEM ( 'NONE', ( #87 ), #96 ) ;
#87 = PRESENTATION_STYLE_ASSIGNMENT (( #88 ) ) ;
#88 = SURFACE_STYLE_USAGE ( .BOTH. , #89 ) ;
#89 = SURFACE_SIDE_STYLE ('',( #90 ) ) ;
#90 = SURFACE_STYLE_FILL_AREA ( #91 ) ;
#91 = FILL_AREA_STYLE ('',( #92 ) ) ;
#92 = FILL_AREA_STYLE_COLOUR ( '', #93 ) ;
#93 = COLOUR_RGB ( '',0.9568627450980391500, 0.9490196078431372100, 0.9607843137254902200 ) ;
#94 = DIRECTION ( 'NONE',  ( 0.0000000000000000000, 0.0000000000000000000, -1.000000000000000000 ) ) ;
#95 = DIRECTION ( 'NONE',  ( 1.000000000000000000, 0.0000000000000000000, 0.0000000000000000000 ) ) ;
#96 = ADVANCED_FACE ( 'NONE', ( #10 ), #137, .T. ) ;
#97 = ORIENTED_EDGE ( 'NONE', *, *, #155, .T. ) ;
#98 = MANIFOLD_SOLID_BREP ( 'NONE', #34 ) ;
#99 = VERTEX_POINT ( 'NONE', #80 ) ;
#100 = ADVANCED_FACE ( 'NONE', ( #79 ), #176, .T. ) ;
#101 = DIRECTION ( 'NONE',  ( -0.0000000000000000000, -0.0000000000000000000, 1.000000000000000000 ) ) ;
#102 = AXIS2_PLACEMENT_3D ( 'NONE', #156, #101, #56 ) ;
#103 = CARTESIAN_POINT ( 'NONE',  ( 0.0000000000000000000, 0.0000000000000000000, -1.445000000000000100 ) ) ;
#104 = EDGE_LOOP ( 'NONE', ( #105, #83, #54, #84 ) ) ;
#105 = ORIENTED_EDGE ( 'NONE', *, *, #18, .T. ) ;
#106 = EDGE_LOOP ( 'NONE', ( #134, #50 ) ) ;
#107 = EDGE_LOOP ( 'NONE', ( #108, #109, #167, #168 ) ) ;
#108 = ORIENTED_EDGE ( 'NONE', *, *, #170, .F. ) ;
#109 = ORIENTED_EDGE ( 'NONE', *, *, #157, .T. ) ;
#110 = CARTESIAN_POINT ( 'NONE',  ( 0.0000000000000000000, 0.0000000000000000000, -88.68499999999998800 ) ) ;
#111 = AXIS2_PLACEMENT_3D ( 'NONE', #110, #160, #159 ) ;
#112 = SPHERICAL_SURFACE ( 'NONE', #111, 90.12999999999998100 ) ;
#113 =( GEOMETRIC_REPRESENTATION_CONTEXT ( 3 ) GLOBAL_UNCERTAINTY_ASSIGNED_CONTEXT ( ( #25 ) ) GLOBAL_UNIT_ASSIGNED_CONTEXT ( ( #58, #57, #26 ) ) REPRESENTATION_CONTEXT ( 'NONE', 'WORKASPACE' ) );
#114 = UNCERTAINTY_MEASURE_WITH_UNIT (LENGTH_MEASURE( 1.000000000000000100E-005 ), #1, 'distance_accuracy_value', 'NONE');
#115 =( NAMED_UNIT ( * ) SI_UNIT ( $, .STERADIAN. ) SOLID_ANGLE_UNIT ( ) );
#116 =( NAMED_UNIT ( * ) PLANE_ANGLE_UNIT ( ) SI_UNIT ( $, .RADIAN. ) );
#117 =( GEOMETRIC_REPRESENTATION_CONTEXT ( 3 ) GLOBAL_UNCERTAINTY_ASSIGNED_CONTEXT ( ( #162 ) ) GLOBAL_UNIT_ASSIGNED_CONTEXT ( ( #39, #16, #15 ) ) REPRESENTATION_CONTEXT ( 'NONE', 'WORKASPACE' ) );
#118 = ADVANCED_FACE ( 'NONE', ( #260 ), #193, .T. ) ;
#119 = ORIENTED_EDGE ( 'NONE', *, *, #145, .T. ) ;
#120 = PLANE ( 'NONE',  #122 ) ;
#121 = CARTESIAN_POINT ( 'NONE',  ( 0.0000000000000000000, 5.308843874303775600E-016, -1.445000000000000100 ) ) ;
#122 = AXIS2_PLACEMENT_3D ( 'NONE', #121, #151, #150 ) ;
#123 =( LENGTH_UNIT ( ) NAMED_UNIT ( * ) SI_UNIT ( .MILLI., .METRE. ) );
#124 = MECHANICAL_DESIGN_GEOMETRIC_PRESENTATION_REPRESENTATION (  '', ( #86 ), #138 ) ;
#125 = PRESENTATION_LAYER_ASSIGNMENT (  '', '', ( #86 ) ) ;
#126 = VERTEX_POINT ( 'NONE', #194 ) ;
#127 = SURFACE_STYLE_USAGE ( .BOTH. , #128 ) ;
#128 = SURFACE_SIDE_STYLE ('',( #129 ) ) ;
#129 = SURFACE_STYLE_FILL_AREA ( #139 ) ;
#130 = DIRECTION ( 'NONE',  ( 1.000000000000000000, 0.0000000000000000000, 0.0000000000000000000 ) ) ;
#131 = DIRECTION ( 'NONE',  ( -0.0000000000000000000, -0.0000000000000000000, 1.000000000000000000 ) ) ;
#132 = AXIS2_PLACEMENT_3D ( 'NONE', #38, #131, #130 ) ;
#133 = CIRCLE ( 'NONE', #132, 12.69999999999999900 ) ;
#134 = ORIENTED_EDGE ( 'NONE', *, *, #145, .F. ) ;
#135 = CARTESIAN_POINT ( 'NONE',  ( -1.555250069354414300E-015, -12.69999999999996200, 0.5457508653827348700 ) ) ;
#136 = AXIS2_PLACEMENT_3D ( 'NONE', #46, #45, #44 ) ;
#137 = CYLINDRICAL_SURFACE ( 'NONE', #136, 12.69999999999999900 ) ;
#138 =( GEOMETRIC_REPRESENTATION_CONTEXT ( 3 ) GLOBAL_UNCERTAINTY_ASSIGNED_CONTEXT ( ( #163 ) ) GLOBAL_UNIT_ASSIGNED_CONTEXT ( ( #123, #165, #164 ) ) REPRESENTATION_CONTEXT ( 'NONE', 'WORKASPACE' ) );
#139 = FILL_AREA_STYLE ('',( #140 ) ) ;
#140 = FILL_AREA_STYLE_COLOUR ( '', #141 ) ;
#141 = COLOUR_RGB ( '',0.9568627450980391500, 0.9490196078431372100, 0.9607843137254902200 ) ;
#142 = FACE_OUTER_BOUND ( 'NONE', #106, .T. ) ;
#143 = CIRCLE ( 'NONE', #102, 12.69999999999999900 ) ;
#144 = ORIENTED_EDGE ( 'NONE', *, *, #158, .F. ) ;
#145 = EDGE_CURVE ( 'NONE', #99, #146, #186, .T. ) ;
#146 = VERTEX_POINT ( 'NONE', #261 ) ;
#147 = SURFACE_STYLE_FILL_AREA ( #148 ) ;
#148 = FILL_AREA_STYLE ('',( #149 ) ) ;
#149 = FILL_AREA_STYLE_COLOUR ( '', #152 ) ;
#150 = DIRECTION ( 'NONE',  ( 1.000000000000000000, 0.0000000000000000000, 0.0000000000000000000 ) ) ;
#151 = DIRECTION ( 'NONE',  ( 0.0000000000000000000, -0.0000000000000000000, 1.000000000000000000 ) ) ;
#152 = COLOUR_RGB ( '',0.9568627450980391500, 0.9490196078431372100, 0.9607843137254902200 ) ;
#153 = FACE_OUTER_BOUND ( 'NONE', #107, .T. ) ;
#154 = ORIENTED_EDGE ( 'NONE', *, *, #155, .F. ) ;
#155 = EDGE_CURVE ( 'NONE', #99, #126, #238, .T. ) ;
#156 = CARTESIAN_POINT ( 'NONE',  ( 0.0000000000000000000, 0.0000000000000000000, 0.5457508653827344300 ) ) ;
#157 = EDGE_CURVE ( 'NONE', #53, #126, #190, .T. ) ;
#158 = EDGE_CURVE ( 'NONE', #146, #169, #211, .T. ) ;
#159 = DIRECTION ( 'NONE',  ( 0.0000000000000000000, 1.000000000000000000, 0.0000000000000000000 ) ) ;
#160 = DIRECTION ( 'NONE',  ( -1.000000000000000000, 0.0000000000000000000, 0.0000000000000000000 ) ) ;
#161 = CARTESIAN_POINT ( 'NONE',  ( 0.0000000000000000000, 12.69999999999996200, 0.5457508653827348700 ) ) ;
#162 = UNCERTAINTY_MEASURE_WITH_UNIT (LENGTH_MEASURE( 1.000000000000000100E-005 ), #39, 'distance_accuracy_value', 'NONE');
#163 = UNCERTAINTY_MEASURE_WITH_UNIT (LENGTH_MEASURE( 1.000000000000000100E-005 ), #123, 'distance_accuracy_value', 'NONE');
#164 =( NAMED_UNIT ( * ) SI_UNIT ( $, .STERADIAN. ) SOLID_ANGLE_UNIT ( ) );
#165 =( NAMED_UNIT ( * ) PLANE_ANGLE_UNIT ( ) SI_UNIT ( $, .RADIAN. ) );
#166 = EDGE_LOOP ( 'NONE', ( #119, #14, #17, #66, #154 ) ) ;
#167 = ORIENTED_EDGE ( 'NONE', *, *, #67, .T. ) ;
#168 = ORIENTED_EDGE ( 'NONE', *, *, #85, .T. ) ;
#169 = VERTEX_POINT ( 'NONE', #200 ) ;
#170 = EDGE_CURVE ( 'NONE', #53, #171, #246, .T. ) ;
#171 = VERTEX_POINT ( 'NONE', #242 ) ;
#172 = MECHANICAL_DESIGN_GEOMETRIC_PRESENTATION_REPRESENTATION (  '', ( #174 ), #177 ) ;
#173 = PRESENTATION_LAYER_ASSIGNMENT (  '', '', ( #174 ) ) ;
#174 = STYLED_ITEM ( 'NONE', ( #208 ), #118 ) ;
#175 = DIRECTION ( 'NONE',  ( -1.000000000000000000, 0.0000000000000000000, 0.0000000000000000000 ) ) ;
#176 = SPHERICAL_SURFACE ( 'NONE', #216, 90.12999999999998100 ) ;
#177 =( GEOMETRIC_REPRESENTATION_CONTEXT ( 3 ) GLOBAL_UNCERTAINTY_ASSIGNED_CONTEXT ( ( #248 ) ) GLOBAL_UNIT_ASSIGNED_CONTEXT ( ( #180, #249, #181 ) ) REPRESENTATION_CONTEXT ( 'NONE', 'WORKASPACE' ) );
#178 = CARTESIAN_POINT ( 'NONE',  ( 0.0000000000000000000, 0.0000000000000000000, 0.0000000000000000000 ) ) ;
#179 = APPLICATION_CONTEXT ( 'automotive_design' ) ;
#180 =( LENGTH_UNIT ( ) NAMED_UNIT ( * ) SI_UNIT ( .MILLI., .METRE. ) );
#181 =( NAMED_UNIT ( * ) SI_UNIT ( $, .STERADIAN. ) SOLID_ANGLE_UNIT ( ) );
#182 = DIRECTION ( 'NONE',  ( 1.000000000000000000, 0.0000000000000000000, 0.0000000000000000000 ) ) ;
#183 = DIRECTION ( 'NONE',  ( -0.0000000000000000000, -0.0000000000000000000, 1.000000000000000000 ) ) ;
#184 = CARTESIAN_POINT ( 'NONE',  ( 0.0000000000000000000, 0.0000000000000000000, -1.445000000000000100 ) ) ;
#185 = AXIS2_PLACEMENT_3D ( 'NONE', #184, #183, #182 ) ;
#186 = CIRCLE ( 'NONE', #185, 12.69999999999999900 ) ;
#187 = ADVANCED_BREP_SHAPE_REPRESENTATION ( '3255-E0W', ( #98, #241 ), #188 ) ;
#188 =( GEOMETRIC_REPRESENTATION_CONTEXT ( 3 ) GLOBAL_UNCERTAINTY_ASSIGNED_CONTEXT ( ( #203 ) ) GLOBAL_UNIT_ASSIGNED_CONTEXT ( ( #240, #239, #204 ) ) REPRESENTATION_CONTEXT ( 'NONE', 'WORKASPACE' ) );
#189 = DIRECTION ( 'NONE',  ( 0.0000000000000000000, 1.000000000000000000, 0.0000000000000000000 ) ) ;
#190 = CIRCLE ( 'NONE', #215, 12.69999999999999900 ) ;
#191 = CARTESIAN_POINT ( 'NONE',  ( -12.69999999999999900, 1.555250069354419100E-015, 4.308132045400366600 ) ) ;
#192 = DIRECTION ( 'NONE',  ( -0.0000000000000000000, -0.0000000000000000000, 1.000000000000000000 ) ) ;
#193 = CYLINDRICAL_SURFACE ( 'NONE', #198, 12.69999999999999900 ) ;
#194 = CARTESIAN_POINT ( 'NONE',  ( 12.69999999999999900, 0.0000000000000000000, 0.5457508653827344300 ) ) ;
#195 = DIRECTION ( 'NONE',  ( 1.000000000000000000, 0.0000000000000000000, 0.0000000000000000000 ) ) ;
#196 = DIRECTION ( 'NONE',  ( -0.0000000000000000000, -0.0000000000000000000, 1.000000000000000000 ) ) ;
#197 = CARTESIAN_POINT ( 'NONE',  ( 0.0000000000000000000, 0.0000000000000000000, 4.308132045400366600 ) ) ;
#198 = AXIS2_PLACEMENT_3D ( 'NONE', #197, #196, #195 ) ;
#199 = CARTESIAN_POINT ( 'NONE',  ( 0.0000000000000000000, 0.0000000000000000000, -88.68499999999998800 ) ) ;
#200 = CARTESIAN_POINT ( 'NONE',  ( -12.69999999999999900, 1.555250069354419100E-015, 0.5457508653827344300 ) ) ;
#201 = DIRECTION ( 'NONE',  ( -0.0000000000000000000, -0.0000000000000000000, 1.000000000000000000 ) ) ;
#202 = VECTOR ( 'NONE', #201, 1000.000000000000000 ) ;
#203 = UNCERTAINTY_MEASURE_WITH_UNIT (LENGTH_MEASURE( 1.000000000000000100E-005 ), #240, 'distance_accuracy_value', 'NONE');
#204 =( NAMED_UNIT ( * ) SI_UNIT ( $, .STERADIAN. ) SOLID_ANGLE_UNIT ( ) );
#205 = SURFACE_STYLE_FILL_AREA ( #206 ) ;
#206 = FILL_AREA_STYLE ('',( #207 ) ) ;
#207 = FILL_AREA_STYLE_COLOUR ( '', #259 ) ;
#208 = PRESENTATION_STYLE_ASSIGNMENT (( #209 ) ) ;
#209 = SURFACE_STYLE_USAGE ( .BOTH. , #210 ) ;
#210 = SURFACE_SIDE_STYLE ('',( #205 ) ) ;
#211 = LINE ( 'NONE', #191, #202 ) ;
#212 = DIRECTION ( 'NONE',  ( 1.000000000000000000, 0.0000000000000000000, 0.0000000000000000000 ) ) ;
#213 = DIRECTION ( 'NONE',  ( -0.0000000000000000000, -0.0000000000000000000, 1.000000000000000000 ) ) ;
#214 = CARTESIAN_POINT ( 'NONE',  ( 0.0000000000000000000, 0.0000000000000000000, 0.5457508653827344300 ) ) ;
#215 = AXIS2_PLACEMENT_3D ( 'NONE', #214, #213, #212 ) ;
#216 = AXIS2_PLACEMENT_3D ( 'NONE', #247, #175, #189 ) ;
#217 = DIRECTION ( 'NONE',  ( 1.000000000000000000, 0.0000000000000000000, 0.0000000000000000000 ) ) ;
#218 = DIRECTION ( 'NONE',  ( 0.0000000000000000000, 0.0000000000000000000, 1.000000000000000000 ) ) ;
#219 =( GEOMETRIC_REPRESENTATION_CONTEXT ( 3 ) GLOBAL_UNCERTAINTY_ASSIGNED_CONTEXT ( ( #220 ) ) GLOBAL_UNIT_ASSIGNED_CONTEXT ( ( #223, #222, #221 ) ) REPRESENTATION_CONTEXT ( 'NONE', 'WORKASPACE' ) );
#220 = UNCERTAINTY_MEASURE_WITH_UNIT (LENGTH_MEASURE( 1.000000000000000100E-005 ), #223, 'distance_accuracy_value', 'NONE');
#221 =( NAMED_UNIT ( * ) SI_UNIT ( $, .STERADIAN. ) SOLID_ANGLE_UNIT ( ) );
#222 =( NAMED_UNIT ( * ) PLANE_ANGLE_UNIT ( ) SI_UNIT ( $, .RADIAN. ) );
#223 =( LENGTH_UNIT ( ) NAMED_UNIT ( * ) SI_UNIT ( .MILLI., .METRE. ) );
#224 = MECHANICAL_DESIGN_GEOMETRIC_PRESENTATION_REPRESENTATION (  '', ( #226 ), #219 ) ;
#225 = PRESENTATION_LAYER_ASSIGNMENT (  '', '', ( #226 ) ) ;
#226 = STYLED_ITEM ( 'NONE', ( #227 ), #187 ) ;
#227 = PRESENTATION_STYLE_ASSIGNMENT (( #228 ) ) ;
#228 = SURFACE_STYLE_USAGE ( .BOTH. , #229 ) ;
#229 = SURFACE_SIDE_STYLE ('',( #230 ) ) ;
#230 = SURFACE_STYLE_FILL_AREA ( #231 ) ;
#231 = FILL_AREA_STYLE ('',( #232 ) ) ;
#232 = FILL_AREA_STYLE_COLOUR ( '', #233 ) ;
#233 = COLOUR_RGB ( '',0.7960784313725489700, 0.8235294117647058400, 0.9372549019607843100 ) ;
#234 = SHAPE_DEFINITION_REPRESENTATION ( #235, #187 ) ;
#235 = PRODUCT_DEFINITION_SHAPE ( 'NONE', 'NONE',  #252 ) ;
#236 = VECTOR ( 'NONE', #192, 1000.000000000000000 ) ;
#237 = CARTESIAN_POINT ( 'NONE',  ( 12.69999999999999900, 0.0000000000000000000, 4.308132045400366600 ) ) ;
#238 = LINE ( 'NONE', #237, #236 ) ;
#239 =( NAMED_UNIT ( * ) PLANE_ANGLE_UNIT ( ) SI_UNIT ( $, .RADIAN. ) );
#240 =( LENGTH_UNIT ( ) NAMED_UNIT ( * ) SI_UNIT ( .MILLI., .METRE. ) );
#241 = AXIS2_PLACEMENT_3D ( 'NONE', #178, #218, #217 ) ;
#242 = CARTESIAN_POINT ( 'NONE',  ( 0.0000000000000000000, 5.518688533500541900E-015, 1.445000000000001800 ) ) ;
#243 = DIRECTION ( 'NONE',  ( -1.224606353822377300E-016, -1.000000000000000000, 0.0000000000000000000 ) ) ;
#244 = DIRECTION ( 'NONE',  ( -1.000000000000000000, 1.224606353822377300E-016, 0.0000000000000000000 ) ) ;
#245 = AXIS2_PLACEMENT_3D ( 'NONE', #199, #244, #243 ) ;
#246 = CIRCLE ( 'NONE', #245, 90.12999999999998100 ) ;
#247 = CARTESIAN_POINT ( 'NONE',  ( 0.0000000000000000000, 0.0000000000000000000, -88.68499999999998800 ) ) ;
#248 = UNCERTAINTY_MEASURE_WITH_UNIT (LENGTH_MEASURE( 1.000000000000000100E-005 ), #180, 'distance_accuracy_value', 'NONE');
#249 =( NAMED_UNIT ( * ) PLANE_ANGLE_UNIT ( ) SI_UNIT ( $, .RADIAN. ) );
#250 = PRODUCT_RELATED_PRODUCT_CATEGORY ( 'part', '', ( #256 ) ) ;
#251 = PRODUCT_DEFINITION_FORMATION_WITH_SPECIFIED_SOURCE ( 'ANY', '', #256, .NOT_KNOWN. ) ;
#252 = PRODUCT_DEFINITION ( 'UNKNOWN', '', #251, #253 ) ;
#253 = PRODUCT_DEFINITION_CONTEXT ( 'detailed design', #255, 'design' ) ;
#254 = APPLICATION_PROTOCOL_DEFINITION ( 'draft international standard', 'automotive_design', 1998, #255 ) ;
#255 = APPLICATION_CONTEXT ( 'automotive_design' ) ;
#256 = PRODUCT ( '3255-E0W', '3255-E0W', '', ( #257 ) ) ;
#257 = PRODUCT_CONTEXT ( 'NONE', #179, 'mechanical' ) ;
#258 = APPLICATION_PROTOCOL_DEFINITION ( 'draft international standard', 'automotive_design', 1998, #179 ) ;
#259 = COLOUR_RGB ( '',0.9568627450980391500, 0.9490196078431372100, 0.9607843137254902200 ) ;
#260 = FACE_OUTER_BOUND ( 'NONE', #166, .T. ) ;
#261 = CARTESIAN_POINT ( 'NONE',  ( -12.69999999999999900, 1.555250069354419100E-015, -1.445000000000000100 ) ) ;
ENDSEC;
END-ISO-10303-21;
