ISO-10303-21;
HEADER;
FILE_DESCRIPTION (( 'STEP AP203' ),
    '1' );
FILE_NAME ('Web Model 14683_14683.step',
    '2020-04-13T13:45:33',
    ( '' ),
    ( '' ),
    'SwSTEP 2.0',
    'SolidWorks 2018',
    '' );
FILE_SCHEMA (( 'CONFIG_CONTROL_DESIGN' ));
ENDSEC;

DATA;
#1 = VERTEX_POINT ( 'NONE', #120 ) ;
#2 = CC_DESIGN_PERSON_AND_ORGANIZATION_ASSIGNMENT ( #202, #187, ( #100 ) ) ;
#3 = ORIENTED_EDGE ( 'NONE', *, *, #176, .F. ) ;
#4 = ORIENTED_EDGE ( 'NONE', *, *, #119, .T. ) ;
#5 = DIRECTION ( 'NONE',  ( 0.0000000000000000000, 0.0000000000000000000, 1.000000000000000000 ) ) ;
#6 = CARTESIAN_POINT ( 'NONE',  ( 0.7500000000000000000, -7.499999999999992895, -7.499999999999984901 ) ) ;
#7 = PRODUCT_RELATED_PRODUCT_CATEGORY ( 'detail', '', ( #169 ) ) ;
#8 = COORDINATED_UNIVERSAL_TIME_OFFSET ( 5, 0, .BEHIND. ) ;
#9 = DIRECTION ( 'NONE',  ( -1.000000000000000000, -0.0000000000000000000, -0.0000000000000000000 ) ) ;
#10 = CARTESIAN_POINT ( 'NONE',  ( 0.7500000000000000000, -7.499999999999992895, -7.499999999999984901 ) ) ;
#11 = VERTEX_POINT ( 'NONE', #230 ) ;
#12 = ORIENTED_EDGE ( 'NONE', *, *, #173, .F. ) ;
#13 = SECURITY_CLASSIFICATION_LEVEL ( 'unclassified' ) ;
#14 = CALENDAR_DATE ( 2020, 13, 4 ) ;
#15 = CARTESIAN_POINT ( 'NONE',  ( 0.7500000000000000000, -7.499999999999992895, -7.499999999999984901 ) ) ;
#16 = AXIS2_PLACEMENT_3D ( 'NONE', #144, #26, #94 ) ;
#17 = EDGE_LOOP ( 'NONE', ( #161, #77, #71, #33 ) ) ;
#18 = EDGE_LOOP ( 'NONE', ( #143, #12, #57, #133 ) ) ;
#19 = DIRECTION ( 'NONE',  ( -0.0000000000000000000, -1.000000000000000000, -0.0000000000000000000 ) ) ;
#20 = ADVANCED_FACE ( 'NONE', ( #191 ), #232, .F. ) ;
#21 = ORIENTED_EDGE ( 'NONE', *, *, #45, .T. ) ;
#22 = PRODUCT_DEFINITION_SHAPE ( 'NONE', 'NONE',  #75 ) ;
#23 = DIRECTION ( 'NONE',  ( 0.0000000000000000000, 0.0000000000000000000, -1.000000000000000000 ) ) ;
#24 = APPLICATION_CONTEXT ( 'configuration controlled 3d designs of mechanical parts and assemblies' ) ;
#25 = CARTESIAN_POINT ( 'NONE',  ( 0.7500000000000000000, -7.499999999999992895, -7.499999999999984901 ) ) ;
#26 = DIRECTION ( 'NONE',  ( 0.0000000000000000000, -1.000000000000000000, 4.625929269271485914E-16 ) ) ;
#27 = DIRECTION ( 'NONE',  ( -1.000000000000000000, -0.0000000000000000000, -0.0000000000000000000 ) ) ;
#28 = PERSON_AND_ORGANIZATION ( #87, #156 ) ;
#29 = EDGE_LOOP ( 'NONE', ( #199, #135, #220, #4 ) ) ;
#30 = APPROVAL_ROLE ( '' ) ;
#31 = APPROVAL_ROLE ( '' ) ;
#32 = DATE_AND_TIME ( #152, #85 ) ;
#33 = ORIENTED_EDGE ( 'NONE', *, *, #114, .T. ) ;
#34 = EDGE_CURVE ( 'NONE', #11, #168, #236, .T. ) ;
#35 = VECTOR ( 'NONE', #108, 1000.000000000000000 ) ;
#36 = LINE ( 'NONE', #224, #35 ) ;
#37 = DIRECTION ( 'NONE',  ( 1.000000000000000000, 0.0000000000000000000, 0.0000000000000000000 ) ) ;
#38 = PLANE ( 'NONE',  #80 ) ;
#39 = COORDINATED_UNIVERSAL_TIME_OFFSET ( 5, 0, .BEHIND. ) ;
#40 = LINE ( 'NONE', #223, #233 ) ;
#41 = AXIS2_PLACEMENT_3D ( 'NONE', #56, #37, #132 ) ;
#42 = DIRECTION ( 'NONE',  ( 0.0000000000000000000, 4.625929269271485914E-16, 1.000000000000000000 ) ) ;
#43 = APPROVAL_STATUS ( 'not_yet_approved' ) ;
#44 = VECTOR ( 'NONE', #27, 1000.000000000000000 ) ;
#45 = EDGE_CURVE ( 'NONE', #168, #214, #102, .T. ) ;
#46 = VECTOR ( 'NONE', #19, 1000.000000000000000 ) ;
#47 = CC_DESIGN_PERSON_AND_ORGANIZATION_ASSIGNMENT ( #198, #228, ( #75 ) ) ;
#48 = DIRECTION ( 'NONE',  ( 0.0000000000000000000, -0.0000000000000000000, 1.000000000000000000 ) ) ;
#49 = CC_DESIGN_APPROVAL ( #186, ( #100 ) ) ;
#50 = DATE_AND_TIME ( #97, #164 ) ;
#51 = VECTOR ( 'NONE', #58, 1000.000000000000000 ) ;
#52 = DESIGN_CONTEXT ( 'detailed design', #134, 'design' ) ;
#53 = COORDINATED_UNIVERSAL_TIME_OFFSET ( 5, 0, .BEHIND. ) ;
#54 = EDGE_CURVE ( 'NONE', #62, #81, #138, .T. ) ;
#55 =( NAMED_UNIT ( * ) SI_UNIT ( $, .STERADIAN. ) SOLID_ANGLE_UNIT ( ) );
#56 = CARTESIAN_POINT ( 'NONE',  ( -0.7500000000000000000, 0.0000000000000000000, 0.0000000000000000000 ) ) ;
#57 = ORIENTED_EDGE ( 'NONE', *, *, #151, .F. ) ;
#58 = DIRECTION ( 'NONE',  ( 0.0000000000000000000, 1.000000000000000000, 0.0000000000000000000 ) ) ;
#59 = PERSON_AND_ORGANIZATION_ROLE ( 'classification_officer' ) ;
#60 = PERSON_AND_ORGANIZATION ( #87, #156 ) ;
#61 = FACE_OUTER_BOUND ( 'NONE', #67, .T. ) ;
#62 = VERTEX_POINT ( 'NONE', #195 ) ;
#63 = ADVANCED_FACE ( 'NONE', ( #76 ), #82, .T. ) ;
#64 = APPROVAL_STATUS ( 'not_yet_approved' ) ;
#65 = AXIS2_PLACEMENT_3D ( 'NONE', #182, #5, #145 ) ;
#66 = DATE_AND_TIME ( #142, #160 ) ;
#67 = EDGE_LOOP ( 'NONE', ( #222, #3, #93, #167 ) ) ;
#68 = DIRECTION ( 'NONE',  ( 0.0000000000000000000, 0.0000000000000000000, -1.000000000000000000 ) ) ;
#69 = EDGE_CURVE ( 'NONE', #214, #81, #86, .T. ) ;
#70 = APPROVAL_PERSON_ORGANIZATION ( #217, #186, #155 ) ;
#71 = ORIENTED_EDGE ( 'NONE', *, *, #45, .F. ) ;
#72 = DIRECTION ( 'NONE',  ( 0.0000000000000000000, 0.0000000000000000000, 1.000000000000000000 ) ) ;
#73 = CARTESIAN_POINT ( 'NONE',  ( -0.7500000000000000000, -7.499999999999992895, 7.500000000000014211 ) ) ;
#74 = CARTESIAN_POINT ( 'NONE',  ( 0.7500000000000000000, -7.499999999999992895, 7.500000000000014211 ) ) ;
#75 = PRODUCT_DEFINITION ( 'UNKNOWN', '', #100, #52 ) ;
#76 = FACE_OUTER_BOUND ( 'NONE', #188, .T. ) ;
#77 = ORIENTED_EDGE ( 'NONE', *, *, #69, .F. ) ;
#78 = ADVANCED_FACE ( 'NONE', ( #117 ), #174, .F. ) ;
#79 = PERSON_AND_ORGANIZATION_ROLE ( 'design_owner' ) ;
#80 = AXIS2_PLACEMENT_3D ( 'NONE', #6, #72, #208 ) ;
#81 = VERTEX_POINT ( 'NONE', #127 ) ;
#82 = PLANE ( 'NONE',  #184 ) ;
#83 = ORIENTED_EDGE ( 'NONE', *, *, #192, .T. ) ;
#84 = CC_DESIGN_DATE_AND_TIME_ASSIGNMENT ( #50, #95, ( #227 ) ) ;
#85 = LOCAL_TIME ( 9, 45, 33.00000000000000000, #231 ) ;
#86 = LINE ( 'NONE', #89, #163 ) ;
#87 = PERSON ( 'UNSPECIFIED', 'UNSPECIFIED', 'UNSPECIFIED', ('UNSPECIFIED'), ('UNSPECIFIED'), ('UNSPECIFIED') ) ;
#88 = ORIENTED_EDGE ( 'NONE', *, *, #171, .F. ) ;
#89 = CARTESIAN_POINT ( 'NONE',  ( 0.7500000000000000000, -7.499999999999992895, -7.499999999999984901 ) ) ;
#90 = EDGE_CURVE ( 'NONE', #1, #62, #99, .T. ) ;
#91 = CARTESIAN_POINT ( 'NONE',  ( 0.7500000000000000000, 7.500000000000000000, -7.499999999999984901 ) ) ;
#92 =( GEOMETRIC_REPRESENTATION_CONTEXT ( 3 ) GLOBAL_UNCERTAINTY_ASSIGNED_CONTEXT ( ( #131 ) ) GLOBAL_UNIT_ASSIGNED_CONTEXT ( ( #180, #204, #55 ) ) REPRESENTATION_CONTEXT ( 'NONE', 'WORKASPACE' ) );
#93 = ORIENTED_EDGE ( 'NONE', *, *, #192, .F. ) ;
#94 = DIRECTION ( 'NONE',  ( 0.0000000000000000000, -4.625929269271485914E-16, -1.000000000000000000 ) ) ;
#95 = DATE_TIME_ROLE ( 'classification_date' ) ;
#96 = VERTEX_POINT ( 'NONE', #125 ) ;
#97 = CALENDAR_DATE ( 2020, 13, 4 ) ;
#98 = CC_DESIGN_PERSON_AND_ORGANIZATION_ASSIGNMENT ( #101, #59, ( #227 ) ) ;
#99 = LINE ( 'NONE', #73, #210 ) ;
#100 = PRODUCT_DEFINITION_FORMATION_WITH_SPECIFIED_SOURCE ( 'ANY', '', #169, .NOT_KNOWN. ) ;
#101 = PERSON_AND_ORGANIZATION ( #87, #156 ) ;
#102 = LINE ( 'NONE', #15, #175 ) ;
#103 = DIRECTION ( 'NONE',  ( -0.0000000000000000000, -0.0000000000000000000, -1.000000000000000000 ) ) ;
#104 = APPROVAL_DATE_TIME ( #32, #115 ) ;
#105 = AXIS2_PLACEMENT_3D ( 'NONE', #215, #234, #48 ) ;
#106 = DATE_AND_TIME ( #190, #209 ) ;
#107 = LINE ( 'NONE', #130, #179 ) ;
#108 = DIRECTION ( 'NONE',  ( 0.0000000000000000000, 4.625929269271485914E-16, 1.000000000000000000 ) ) ;
#109 = APPROVAL_DATE_TIME ( #66, #157 ) ;
#110 = DIRECTION ( 'NONE',  ( -1.000000000000000000, 0.0000000000000000000, -0.0000000000000000000 ) ) ;
#111 = VERTEX_POINT ( 'NONE', #91 ) ;
#112 = CARTESIAN_POINT ( 'NONE',  ( -0.7500000000000000000, 7.500000000000000000, -7.499999999999984901 ) ) ;
#113 = CARTESIAN_POINT ( 'NONE',  ( 0.7500000000000000000, 7.500000000000000000, -7.499999999999984901 ) ) ;
#114 = EDGE_CURVE ( 'NONE', #168, #62, #140, .T. ) ;
#115 = APPROVAL ( #43, 'UNSPECIFIED' ) ;
#116 = ADVANCED_FACE ( 'NONE', ( #61 ), #38, .F. ) ;
#117 = FACE_OUTER_BOUND ( 'NONE', #29, .T. ) ;
#118 = APPLICATION_PROTOCOL_DEFINITION ( 'international standard', 'config_control_design', 1994, #134 ) ;
#119 = EDGE_CURVE ( 'NONE', #11, #1, #107, .T. ) ;
#120 = CARTESIAN_POINT ( 'NONE',  ( -0.7500000000000000000, 7.500000000000007105, 7.500000000000014211 ) ) ;
#121 = PERSON_AND_ORGANIZATION ( #87, #156 ) ;
#122 = VECTOR ( 'NONE', #42, 1000.000000000000000 ) ;
#123 = CC_DESIGN_APPROVAL ( #115, ( #75 ) ) ;
#124 = CLOSED_SHELL ( 'NONE', ( #78, #20, #116, #137, #63, #212 ) ) ;
#125 = CARTESIAN_POINT ( 'NONE',  ( -0.7500000000000000000, 7.500000000000000000, -7.499999999999984901 ) ) ;
#126 = LINE ( 'NONE', #25, #51 ) ;
#127 = CARTESIAN_POINT ( 'NONE',  ( -0.7500000000000000000, -7.499999999999992895, -7.499999999999984901 ) ) ;
#128 = PLANE ( 'NONE',  #16 ) ;
#129 = CC_DESIGN_APPROVAL ( #157, ( #227 ) ) ;
#130 = CARTESIAN_POINT ( 'NONE',  ( 0.7500000000000000000, 7.500000000000007105, 7.500000000000014211 ) ) ;
#131 = UNCERTAINTY_MEASURE_WITH_UNIT (LENGTH_MEASURE( 1.000000000000000082E-05 ), #180, 'distance_accuracy_value', 'NONE');
#132 = DIRECTION ( 'NONE',  ( 0.0000000000000000000, 0.0000000000000000000, -1.000000000000000000 ) ) ;
#133 = ORIENTED_EDGE ( 'NONE', *, *, #54, .F. ) ;
#134 = APPLICATION_CONTEXT ( 'configuration controlled 3d designs of mechanical parts and assemblies' ) ;
#135 = ORIENTED_EDGE ( 'NONE', *, *, #114, .F. ) ;
#136 = DATE_TIME_ROLE ( 'creation_date' ) ;
#137 = ADVANCED_FACE ( 'NONE', ( #177 ), #128, .F. ) ;
#138 = LINE ( 'NONE', #237, #219 ) ;
#139 = CARTESIAN_POINT ( 'NONE',  ( 0.7500000000000000000, 0.0000000000000000000, 0.0000000000000000000 ) ) ;
#140 = LINE ( 'NONE', #165, #159 ) ;
#141 = CC_DESIGN_SECURITY_CLASSIFICATION ( #227, ( #100 ) ) ;
#142 = CALENDAR_DATE ( 2020, 13, 4 ) ;
#143 = ORIENTED_EDGE ( 'NONE', *, *, #90, .F. ) ;
#144 = CARTESIAN_POINT ( 'NONE',  ( 0.7500000000000000000, 7.500000000000000000, -7.499999999999984901 ) ) ;
#145 = DIRECTION ( 'NONE',  ( 1.000000000000000000, 0.0000000000000000000, 0.0000000000000000000 ) ) ;
#146 = MECHANICAL_CONTEXT ( 'NONE', #24, 'mechanical' ) ;
#147 = DATE_AND_TIME ( #14, #211 ) ;
#148 = ORIENTED_EDGE ( 'NONE', *, *, #171, .T. ) ;
#149 = CC_DESIGN_PERSON_AND_ORGANIZATION_ASSIGNMENT ( #28, #79, ( #169 ) ) ;
#150 = DIRECTION ( 'NONE',  ( -1.000000000000000000, -0.0000000000000000000, -0.0000000000000000000 ) ) ;
#151 = EDGE_CURVE ( 'NONE', #81, #96, #40, .T. ) ;
#152 = CALENDAR_DATE ( 2020, 13, 4 ) ;
#153 = PERSON_AND_ORGANIZATION_ROLE ( 'design_supplier' ) ;
#154 = LINE ( 'NONE', #113, #44 ) ;
#155 = APPROVAL_ROLE ( '' ) ;
#156 = ORGANIZATION ( 'UNSPECIFIED', 'UNSPECIFIED', '' ) ;
#157 = APPROVAL ( #64, 'UNSPECIFIED' ) ;
#158 = APPROVAL_DATE_TIME ( #147, #186 ) ;
#159 = VECTOR ( 'NONE', #9, 1000.000000000000000 ) ;
#160 = LOCAL_TIME ( 9, 45, 33.00000000000000000, #8 ) ;
#161 = ORIENTED_EDGE ( 'NONE', *, *, #54, .T. ) ;
#162 = APPROVAL_PERSON_ORGANIZATION ( #121, #157, #31 ) ;
#163 = VECTOR ( 'NONE', #150, 1000.000000000000000 ) ;
#164 = LOCAL_TIME ( 9, 45, 33.00000000000000000, #53 ) ;
#165 = CARTESIAN_POINT ( 'NONE',  ( 0.7500000000000000000, -7.499999999999992895, 7.500000000000014211 ) ) ;
#166 = CARTESIAN_POINT ( 'NONE',  ( 0.7500000000000000000, -7.499999999999992895, 7.500000000000014211 ) ) ;
#167 = ORIENTED_EDGE ( 'NONE', *, *, #69, .T. ) ;
#168 = VERTEX_POINT ( 'NONE', #166 ) ;
#169 = PRODUCT ( 'Web Model 14683_14683', 'Web Model 14683_14683', '', ( #146 ) ) ;
#170 = MANIFOLD_SOLID_BREP ( 'Boss-Extrude1', #124 ) ;
#171 = EDGE_CURVE ( 'NONE', #111, #11, #36, .T. ) ;
#172 = ORIENTED_EDGE ( 'NONE', *, *, #34, .T. ) ;
#173 = EDGE_CURVE ( 'NONE', #96, #1, #226, .T. ) ;
#174 = PLANE ( 'NONE',  #207 ) ;
#175 = VECTOR ( 'NONE', #197, 1000.000000000000000 ) ;
#176 = EDGE_CURVE ( 'NONE', #111, #96, #154, .T. ) ;
#177 = FACE_OUTER_BOUND ( 'NONE', #185, .T. ) ;
#178 = DIRECTION ( 'NONE',  ( 0.0000000000000000000, 1.000000000000000000, 0.0000000000000000000 ) ) ;
#179 = VECTOR ( 'NONE', #221, 1000.000000000000000 ) ;
#180 =( LENGTH_UNIT ( ) NAMED_UNIT ( * ) SI_UNIT ( .MILLI., .METRE. ) );
#181 = APPLICATION_PROTOCOL_DEFINITION ( 'international standard', 'config_control_design', 1994, #24 ) ;
#182 = CARTESIAN_POINT ( 'NONE',  ( 0.0000000000000000000, 0.0000000000000000000, 0.0000000000000000000 ) ) ;
#183 = PLANE ( 'NONE',  #41 ) ;
#184 = AXIS2_PLACEMENT_3D ( 'NONE', #139, #235, #68 ) ;
#185 = EDGE_LOOP ( 'NONE', ( #196, #218, #88, #189 ) ) ;
#186 = APPROVAL ( #229, 'UNSPECIFIED' ) ;
#187 = PERSON_AND_ORGANIZATION_ROLE ( 'creator' ) ;
#188 = EDGE_LOOP ( 'NONE', ( #172, #21, #83, #148 ) ) ;
#189 = ORIENTED_EDGE ( 'NONE', *, *, #176, .T. ) ;
#190 = CALENDAR_DATE ( 2020, 13, 4 ) ;
#191 = FACE_OUTER_BOUND ( 'NONE', #17, .T. ) ;
#192 = EDGE_CURVE ( 'NONE', #214, #111, #126, .T. ) ;
#193 = ADVANCED_BREP_SHAPE_REPRESENTATION ( 'Web Model 14683_14683', ( #170, #65 ), #92 ) ;
#194 = COORDINATED_UNIVERSAL_TIME_OFFSET ( 5, 0, .BEHIND. ) ;
#195 = CARTESIAN_POINT ( 'NONE',  ( -0.7500000000000000000, -7.499999999999992895, 7.500000000000014211 ) ) ;
#196 = ORIENTED_EDGE ( 'NONE', *, *, #173, .T. ) ;
#197 = DIRECTION ( 'NONE',  ( -0.0000000000000000000, -0.0000000000000000000, -1.000000000000000000 ) ) ;
#198 = PERSON_AND_ORGANIZATION ( #87, #156 ) ;
#199 = ORIENTED_EDGE ( 'NONE', *, *, #90, .T. ) ;
#200 = CC_DESIGN_DATE_AND_TIME_ASSIGNMENT ( #106, #136, ( #75 ) ) ;
#201 = CC_DESIGN_PERSON_AND_ORGANIZATION_ASSIGNMENT ( #213, #153, ( #100 ) ) ;
#202 = PERSON_AND_ORGANIZATION ( #87, #156 ) ;
#203 = FACE_OUTER_BOUND ( 'NONE', #18, .T. ) ;
#204 =( NAMED_UNIT ( * ) PLANE_ANGLE_UNIT ( ) SI_UNIT ( $, .RADIAN. ) );
#205 = APPROVAL_PERSON_ORGANIZATION ( #60, #115, #30 ) ;
#206 = DIRECTION ( 'NONE',  ( -0.0000000000000000000, -1.000000000000000000, -0.0000000000000000000 ) ) ;
#207 = AXIS2_PLACEMENT_3D ( 'NONE', #74, #23, #110 ) ;
#208 = DIRECTION ( 'NONE',  ( 1.000000000000000000, 0.0000000000000000000, -0.0000000000000000000 ) ) ;
#209 = LOCAL_TIME ( 9, 45, 33.00000000000000000, #194 ) ;
#210 = VECTOR ( 'NONE', #206, 1000.000000000000000 ) ;
#211 = LOCAL_TIME ( 9, 45, 33.00000000000000000, #39 ) ;
#212 = ADVANCED_FACE ( 'NONE', ( #203 ), #183, .F. ) ;
#213 = PERSON_AND_ORGANIZATION ( #87, #156 ) ;
#214 = VERTEX_POINT ( 'NONE', #10 ) ;
#215 = CARTESIAN_POINT ( 'NONE',  ( 0.7500000000000000000, -7.499999999999992895, -7.499999999999984901 ) ) ;
#216 = CARTESIAN_POINT ( 'NONE',  ( 0.7500000000000000000, -7.499999999999992895, 7.500000000000014211 ) ) ;
#217 = PERSON_AND_ORGANIZATION ( #87, #156 ) ;
#218 = ORIENTED_EDGE ( 'NONE', *, *, #119, .F. ) ;
#219 = VECTOR ( 'NONE', #103, 1000.000000000000000 ) ;
#220 = ORIENTED_EDGE ( 'NONE', *, *, #34, .F. ) ;
#221 = DIRECTION ( 'NONE',  ( -1.000000000000000000, -0.0000000000000000000, -0.0000000000000000000 ) ) ;
#222 = ORIENTED_EDGE ( 'NONE', *, *, #151, .T. ) ;
#223 = CARTESIAN_POINT ( 'NONE',  ( -0.7500000000000000000, -7.499999999999992895, -7.499999999999984901 ) ) ;
#224 = CARTESIAN_POINT ( 'NONE',  ( 0.7500000000000000000, 7.500000000000000000, -7.499999999999984901 ) ) ;
#225 = SHAPE_DEFINITION_REPRESENTATION ( #22, #193 ) ;
#226 = LINE ( 'NONE', #112, #122 ) ;
#227 = SECURITY_CLASSIFICATION ( '', '', #13 ) ;
#228 = PERSON_AND_ORGANIZATION_ROLE ( 'creator' ) ;
#229 = APPROVAL_STATUS ( 'not_yet_approved' ) ;
#230 = CARTESIAN_POINT ( 'NONE',  ( 0.7500000000000000000, 7.500000000000007105, 7.500000000000014211 ) ) ;
#231 = COORDINATED_UNIVERSAL_TIME_OFFSET ( 5, 0, .BEHIND. ) ;
#232 = PLANE ( 'NONE',  #105 ) ;
#233 = VECTOR ( 'NONE', #178, 1000.000000000000000 ) ;
#234 = DIRECTION ( 'NONE',  ( 0.0000000000000000000, 1.000000000000000000, 0.0000000000000000000 ) ) ;
#235 = DIRECTION ( 'NONE',  ( 1.000000000000000000, 0.0000000000000000000, 0.0000000000000000000 ) ) ;
#236 = LINE ( 'NONE', #216, #46 ) ;
#237 = CARTESIAN_POINT ( 'NONE',  ( -0.7500000000000000000, -7.499999999999992895, -7.499999999999984901 ) ) ;
ENDSEC;
END-ISO-10303-21;
