ISO-10303-21;
HEADER;
FILE_DESCRIPTION (( 'STEP AP203' ),
    '1' );
FILE_NAME ('Web Model 46687.STEP',
    '2017-01-31T15:19:17',
    ( '' ),
    ( '' ),
    'SwSTEP 2.0',
    'SolidWorks 2016',
    '' );
FILE_SCHEMA (( 'CONFIG_CONTROL_DESIGN' ));
ENDSEC;

DATA;
#1 = LOCAL_TIME ( 10, 19, 17.00000000000000000, #39 ) ;
#2 = EDGE_CURVE ( 'NONE', #112, #97, #180, .T. ) ;
#3 = CALENDAR_DATE ( 2017, 31, 1 ) ;
#4 = CC_DESIGN_DATE_AND_TIME_ASSIGNMENT ( #186, #106, ( #18 ) ) ;
#5 = EDGE_LOOP ( 'NONE', ( #55, #177, #32, #91 ) ) ;
#6 = FACE_OUTER_BOUND ( 'NONE', #11, .T. ) ;
#7 = PRODUCT_DEFINITION_SHAPE ( 'NONE', 'NONE',  #18 ) ;
#8 = DIRECTION ( 'NONE',  ( -1.156482317317871500E-016, 1.000000000000000000, -0.0000000000000000000 ) ) ;
#9 = CARTESIAN_POINT ( 'NONE',  ( -9.000000000000003600, -14.99999999999999600, 0.0000000000000000000 ) ) ;
#10 = ORIENTED_EDGE ( 'NONE', *, *, #75, .T. ) ;
#11 = EDGE_LOOP ( 'NONE', ( #232, #226, #237, #10 ) ) ;
#12 = LINE ( 'NONE', #9, #53 ) ;
#13 = ADVANCED_FACE ( 'NONE', ( #68 ), #84, .F. ) ;
#14 = CARTESIAN_POINT ( 'NONE',  ( -9.000000000000007100, 15.00000000000000400, 0.0000000000000000000 ) ) ;
#15 = SHAPE_DEFINITION_REPRESENTATION ( #7, #129 ) ;
#16 = COORDINATED_UNIVERSAL_TIME_OFFSET ( 5, 0, .BEHIND. ) ;
#17 = LINE ( 'NONE', #63, #74 ) ;
#18 = PRODUCT_DEFINITION ( 'UNKNOWN', '', #21, #178 ) ;
#19 = LINE ( 'NONE', #205, #135 ) ;
#20 = VECTOR ( 'NONE', #206, 1000.000000000000000 ) ;
#21 = PRODUCT_DEFINITION_FORMATION_WITH_SPECIFIED_SOURCE ( 'ANY', '', #216, .NOT_KNOWN. ) ;
#22 = PLANE ( 'NONE',  #176 ) ;
#23 = CARTESIAN_POINT ( 'NONE',  ( 0.0000000000000000000, 0.0000000000000000000, 0.0000000000000000000 ) ) ;
#24 = CARTESIAN_POINT ( 'NONE',  ( -9.000000000000003600, -14.99999999999999600, 0.0000000000000000000 ) ) ;
#25 = CARTESIAN_POINT ( 'NONE',  ( 8.999999999999992900, 15.00000000000000400, 0.0000000000000000000 ) ) ;
#26 = ORIENTED_EDGE ( 'NONE', *, *, #89, .F. ) ;
#27 = CC_DESIGN_DATE_AND_TIME_ASSIGNMENT ( #30, #194, ( #92 ) ) ;
#28 = ADVANCED_FACE ( 'NONE', ( #164 ), #123, .F. ) ;
#29 = DIRECTION ( 'NONE',  ( -1.000000000000000000, -1.156482317317871700E-016, 0.0000000000000000000 ) ) ;
#30 = DATE_AND_TIME ( #133, #143 ) ;
#31 = CALENDAR_DATE ( 2017, 31, 1 ) ;
#32 = ORIENTED_EDGE ( 'NONE', *, *, #195, .F. ) ;
#33 = VECTOR ( 'NONE', #126, 1000.000000000000000 ) ;
#34 = EDGE_CURVE ( 'NONE', #149, #97, #148, .T. ) ;
#35 = PERSON_AND_ORGANIZATION ( #88, #61 ) ;
#36 = LOCAL_TIME ( 10, 19, 17.00000000000000000, #192 ) ;
#37 = ORIENTED_EDGE ( 'NONE', *, *, #49, .T. ) ;
#38 = CC_DESIGN_PERSON_AND_ORGANIZATION_ASSIGNMENT ( #160, #196, ( #21 ) ) ;
#39 = COORDINATED_UNIVERSAL_TIME_OFFSET ( 5, 0, .BEHIND. ) ;
#40 = ORIENTED_EDGE ( 'NONE', *, *, #34, .F. ) ;
#41 = CARTESIAN_POINT ( 'NONE',  ( -9.000000000000003600, -14.99999999999999600, 2.000000000000000000 ) ) ;
#42 = CARTESIAN_POINT ( 'NONE',  ( -9.000000000000003600, -14.99999999999999600, 2.000000000000000000 ) ) ;
#43 = VERTEX_POINT ( 'NONE', #121 ) ;
#44 = APPROVAL_ROLE ( '' ) ;
#45 = ADVANCED_FACE ( 'NONE', ( #76 ), #125, .F. ) ;
#46 = ORIENTED_EDGE ( 'NONE', *, *, #2, .T. ) ;
#47 = APPROVAL ( #229, 'UNSPECIFIED' ) ;
#48 = DIRECTION ( 'NONE',  ( 1.156482317317871700E-016, -1.000000000000000000, 0.0000000000000000000 ) ) ;
#49 = EDGE_CURVE ( 'NONE', #50, #200, #127, .T. ) ;
#50 = VERTEX_POINT ( 'NONE', #60 ) ;
#51 = CC_DESIGN_APPROVAL ( #105, ( #92 ) ) ;
#52 = ORIENTED_EDGE ( 'NONE', *, *, #56, .T. ) ;
#53 = VECTOR ( 'NONE', #62, 1000.000000000000000 ) ;
#54 = LOCAL_TIME ( 10, 19, 17.00000000000000000, #16 ) ;
#55 = ORIENTED_EDGE ( 'NONE', *, *, #111, .T. ) ;
#56 = EDGE_CURVE ( 'NONE', #43, #149, #117, .T. ) ;
#57 = ORIENTED_EDGE ( 'NONE', *, *, #79, .F. ) ;
#58 = AXIS2_PLACEMENT_3D ( 'NONE', #23, #236, #173 ) ;
#59 = APPROVAL_DATE_TIME ( #221, #105 ) ;
#60 = CARTESIAN_POINT ( 'NONE',  ( -9.000000000000003600, -14.99999999999999600, 2.000000000000000000 ) ) ;
#61 = ORGANIZATION ( 'UNSPECIFIED', 'UNSPECIFIED', '' ) ;
#62 = DIRECTION ( 'NONE',  ( 1.000000000000000000, 0.0000000000000000000, 0.0000000000000000000 ) ) ;
#63 = CARTESIAN_POINT ( 'NONE',  ( -9.000000000000007100, 15.00000000000000400, 0.0000000000000000000 ) ) ;
#64 = CARTESIAN_POINT ( 'NONE',  ( -9.000000000000007100, 15.00000000000000400, 2.000000000000000000 ) ) ;
#65 = APPROVAL_PERSON_ORGANIZATION ( #115, #105, #231 ) ;
#66 = APPROVAL_PERSON_ORGANIZATION ( #182, #174, #44 ) ;
#67 = PERSON_AND_ORGANIZATION_ROLE ( 'creator' ) ;
#68 = FACE_OUTER_BOUND ( 'NONE', #5, .T. ) ;
#69 = VECTOR ( 'NONE', #8, 1000.000000000000000 ) ;
#70 = LINE ( 'NONE', #208, #113 ) ;
#71 = VECTOR ( 'NONE', #193, 1000.000000000000000 ) ;
#72 = PERSON_AND_ORGANIZATION ( #88, #61 ) ;
#73 = CC_DESIGN_APPROVAL ( #174, ( #18 ) ) ;
#74 = VECTOR ( 'NONE', #138, 1000.000000000000000 ) ;
#75 = EDGE_CURVE ( 'NONE', #50, #43, #207, .T. ) ;
#76 = FACE_OUTER_BOUND ( 'NONE', #189, .T. ) ;
#77 = CARTESIAN_POINT ( 'NONE',  ( 8.999999999999992900, 15.00000000000000400, 2.000000000000000000 ) ) ;
#78 = MANIFOLD_SOLID_BREP ( 'Extrude1', #157 ) ;
#79 = EDGE_CURVE ( 'NONE', #112, #171, #82, .T. ) ;
#80 = PERSON_AND_ORGANIZATION_ROLE ( 'classification_officer' ) ;
#81 = VECTOR ( 'NONE', #155, 1000.000000000000000 ) ;
#82 = LINE ( 'NONE', #137, #158 ) ;
#83 = APPROVAL_ROLE ( '' ) ;
#84 = PLANE ( 'NONE',  #175 ) ;
#85 = DIRECTION ( 'NONE',  ( -1.156482317317871700E-016, 1.000000000000000000, 0.0000000000000000000 ) ) ;
#86 = CALENDAR_DATE ( 2017, 31, 1 ) ;
#87 = ORIENTED_EDGE ( 'NONE', *, *, #235, .F. ) ;
#88 = PERSON ( 'UNSPECIFIED', 'UNSPECIFIED', 'UNSPECIFIED', ('UNSPECIFIED'), ('UNSPECIFIED'), ('UNSPECIFIED') ) ;
#89 = EDGE_CURVE ( 'NONE', #43, #112, #109, .T. ) ;
#90 = APPROVAL_DATE_TIME ( #139, #174 ) ;
#91 = ORIENTED_EDGE ( 'NONE', *, *, #146, .T. ) ;
#92 = SECURITY_CLASSIFICATION ( '', '', #142 ) ;
#93 = AXIS2_PLACEMENT_3D ( 'NONE', #225, #101, #136 ) ;
#94 = PERSON_AND_ORGANIZATION ( #88, #61 ) ;
#95 = APPLICATION_PROTOCOL_DEFINITION ( 'international standard', 'config_control_design', 1994, #230 ) ;
#96 = AXIS2_PLACEMENT_3D ( 'NONE', #179, #161, #147 ) ;
#97 = VERTEX_POINT ( 'NONE', #168 ) ;
#98 = PERSON_AND_ORGANIZATION ( #88, #61 ) ;
#99 = DIRECTION ( 'NONE',  ( 1.156482317317871500E-016, -1.000000000000000000, 0.0000000000000000000 ) ) ;
#100 = PLANE ( 'NONE',  #93 ) ;
#101 = DIRECTION ( 'NONE',  ( -0.0000000000000000000, 0.0000000000000000000, 1.000000000000000000 ) ) ;
#102 = ORIENTED_EDGE ( 'NONE', *, *, #132, .F. ) ;
#103 = CARTESIAN_POINT ( 'NONE',  ( 8.999999999999992900, 15.00000000000000400, 2.000000000000000000 ) ) ;
#104 = APPLICATION_PROTOCOL_DEFINITION ( 'international standard', 'config_control_design', 1994, #156 ) ;
#105 = APPROVAL ( #211, 'UNSPECIFIED' ) ;
#106 = DATE_TIME_ROLE ( 'creation_date' ) ;
#107 = VERTEX_POINT ( 'NONE', #188 ) ;
#108 = UNCERTAINTY_MEASURE_WITH_UNIT (LENGTH_MEASURE( 1.000000000000000100E-005 ), #110, 'distance_accuracy_value', 'NONE');
#109 = LINE ( 'NONE', #103, #69 ) ;
#110 =( LENGTH_UNIT ( ) NAMED_UNIT ( * ) SI_UNIT ( .MILLI., .METRE. ) );
#111 = EDGE_CURVE ( 'NONE', #107, #200, #17, .T. ) ;
#112 = VERTEX_POINT ( 'NONE', #77 ) ;
#113 = VECTOR ( 'NONE', #141, 1000.000000000000000 ) ;
#114 = AXIS2_PLACEMENT_3D ( 'NONE', #167, #153, #227 ) ;
#115 = PERSON_AND_ORGANIZATION ( #88, #61 ) ;
#116 = CALENDAR_DATE ( 2017, 31, 1 ) ;
#117 = LINE ( 'NONE', #191, #165 ) ;
#118 = CC_DESIGN_PERSON_AND_ORGANIZATION_ASSIGNMENT ( #35, #67, ( #18 ) ) ;
#119 = DIRECTION ( 'NONE',  ( -0.0000000000000000000, -0.0000000000000000000, -1.000000000000000000 ) ) ;
#120 = PERSON_AND_ORGANIZATION_ROLE ( 'creator' ) ;
#121 = CARTESIAN_POINT ( 'NONE',  ( 8.999999999999996400, -14.99999999999999600, 2.000000000000000000 ) ) ;
#122 = ORIENTED_EDGE ( 'NONE', *, *, #132, .T. ) ;
#123 = PLANE ( 'NONE',  #214 ) ;
#124 = ADVANCED_FACE ( 'NONE', ( #217 ), #22, .F. ) ;
#125 = PLANE ( 'NONE',  #96 ) ;
#126 = DIRECTION ( 'NONE',  ( -1.000000000000000000, -0.0000000000000000000, -0.0000000000000000000 ) ) ;
#127 = LINE ( 'NONE', #42, #20 ) ;
#128 = CC_DESIGN_APPROVAL ( #47, ( #21 ) ) ;
#129 = ADVANCED_BREP_SHAPE_REPRESENTATION ( 'Web Model 46687', ( #78, #58 ), #163 ) ;
#130 = ORIENTED_EDGE ( 'NONE', *, *, #75, .F. ) ;
#131 = VECTOR ( 'NONE', #197, 1000.000000000000000 ) ;
#132 = EDGE_CURVE ( 'NONE', #200, #149, #12, .T. ) ;
#133 = CALENDAR_DATE ( 2017, 31, 1 ) ;
#134 = ORIENTED_EDGE ( 'NONE', *, *, #146, .F. ) ;
#135 = VECTOR ( 'NONE', #99, 1000.000000000000000 ) ;
#136 = DIRECTION ( 'NONE',  ( 1.000000000000000000, 0.0000000000000000000, 0.0000000000000000000 ) ) ;
#137 = CARTESIAN_POINT ( 'NONE',  ( -9.000000000000007100, 15.00000000000000400, 2.000000000000000000 ) ) ;
#138 = DIRECTION ( 'NONE',  ( 1.156482317317871500E-016, -1.000000000000000000, 0.0000000000000000000 ) ) ;
#139 = DATE_AND_TIME ( #3, #54 ) ;
#140 = DATE_AND_TIME ( #116, #36 ) ;
#141 = DIRECTION ( 'NONE',  ( -0.0000000000000000000, -0.0000000000000000000, -1.000000000000000000 ) ) ;
#142 = SECURITY_CLASSIFICATION_LEVEL ( 'unclassified' ) ;
#143 = LOCAL_TIME ( 10, 19, 17.00000000000000000, #185 ) ;
#144 = PRODUCT_RELATED_PRODUCT_CATEGORY ( 'detail', '', ( #216 ) ) ;
#145 = APPROVAL_PERSON_ORGANIZATION ( #94, #47, #83 ) ;
#146 = EDGE_CURVE ( 'NONE', #171, #107, #70, .T. ) ;
#147 = DIRECTION ( 'NONE',  ( 1.000000000000000000, 0.0000000000000000000, 0.0000000000000000000 ) ) ;
#148 = LINE ( 'NONE', #25, #81 ) ;
#149 = VERTEX_POINT ( 'NONE', #204 ) ;
#150 = CARTESIAN_POINT ( 'NONE',  ( -9.000000000000007100, 15.00000000000000400, 2.000000000000000000 ) ) ;
#151 = PLANE ( 'NONE',  #114 ) ;
#152 = CARTESIAN_POINT ( 'NONE',  ( -9.000000000000003600, -14.99999999999999600, 2.000000000000000000 ) ) ;
#153 = DIRECTION ( 'NONE',  ( 0.0000000000000000000, -1.000000000000000000, 0.0000000000000000000 ) ) ;
#154 = PERSON_AND_ORGANIZATION_ROLE ( 'design_owner' ) ;
#155 = DIRECTION ( 'NONE',  ( -1.156482317317871500E-016, 1.000000000000000000, -0.0000000000000000000 ) ) ;
#156 = APPLICATION_CONTEXT ( 'configuration controlled 3d designs of mechanical parts and assemblies' ) ;
#157 = CLOSED_SHELL ( 'NONE', ( #28, #215, #13, #124, #210, #45 ) ) ;
#158 = VECTOR ( 'NONE', #209, 1000.000000000000000 ) ;
#159 = COORDINATED_UNIVERSAL_TIME_OFFSET ( 5, 0, .BEHIND. ) ;
#160 = PERSON_AND_ORGANIZATION ( #88, #61 ) ;
#161 = DIRECTION ( 'NONE',  ( -0.0000000000000000000, 0.0000000000000000000, 1.000000000000000000 ) ) ;
#162 = EDGE_LOOP ( 'NONE', ( #122, #198, #130, #37 ) ) ;
#163 =( GEOMETRIC_REPRESENTATION_CONTEXT ( 3 ) GLOBAL_UNCERTAINTY_ASSIGNED_CONTEXT ( ( #108 ) ) GLOBAL_UNIT_ASSIGNED_CONTEXT ( ( #110, #223, #184 ) ) REPRESENTATION_CONTEXT ( 'NONE', 'WORKASPACE' ) );
#164 = FACE_OUTER_BOUND ( 'NONE', #181, .T. ) ;
#165 = VECTOR ( 'NONE', #119, 1000.000000000000000 ) ;
#166 = DIRECTION ( 'NONE',  ( 0.0000000000000000000, -0.0000000000000000000, 1.000000000000000000 ) ) ;
#167 = CARTESIAN_POINT ( 'NONE',  ( -9.000000000000007100, 15.00000000000000400, 2.000000000000000000 ) ) ;
#168 = CARTESIAN_POINT ( 'NONE',  ( 8.999999999999992900, 15.00000000000000400, 0.0000000000000000000 ) ) ;
#169 = MECHANICAL_CONTEXT ( 'NONE', #230, 'mechanical' ) ;
#170 = CARTESIAN_POINT ( 'NONE',  ( 8.999999999999992900, 15.00000000000000400, 2.000000000000000000 ) ) ;
#171 = VERTEX_POINT ( 'NONE', #150 ) ;
#172 = APPROVAL_STATUS ( 'not_yet_approved' ) ;
#173 = DIRECTION ( 'NONE',  ( 1.000000000000000000, 0.0000000000000000000, 0.0000000000000000000 ) ) ;
#174 = APPROVAL ( #172, 'UNSPECIFIED' ) ;
#175 = AXIS2_PLACEMENT_3D ( 'NONE', #64, #212, #85 ) ;
#176 = AXIS2_PLACEMENT_3D ( 'NONE', #152, #190, #166 ) ;
#177 = ORIENTED_EDGE ( 'NONE', *, *, #49, .F. ) ;
#178 = DESIGN_CONTEXT ( 'detailed design', #156, 'design' ) ;
#179 = CARTESIAN_POINT ( 'NONE',  ( 8.999999999999996400, -14.99999999999999600, 0.0000000000000000000 ) ) ;
#180 = LINE ( 'NONE', #170, #131 ) ;
#181 = EDGE_LOOP ( 'NONE', ( #228, #224, #26, #52 ) ) ;
#182 = PERSON_AND_ORGANIZATION ( #88, #61 ) ;
#183 = ORIENTED_EDGE ( 'NONE', *, *, #111, .F. ) ;
#184 =( NAMED_UNIT ( * ) SI_UNIT ( $, .STERADIAN. ) SOLID_ANGLE_UNIT ( ) );
#185 = COORDINATED_UNIVERSAL_TIME_OFFSET ( 5, 0, .BEHIND. ) ;
#186 = DATE_AND_TIME ( #31, #1 ) ;
#187 = CC_DESIGN_PERSON_AND_ORGANIZATION_ASSIGNMENT ( #98, #120, ( #21 ) ) ;
#188 = CARTESIAN_POINT ( 'NONE',  ( -9.000000000000007100, 15.00000000000000400, 0.0000000000000000000 ) ) ;
#189 = EDGE_LOOP ( 'NONE', ( #40, #102, #183, #87 ) ) ;
#190 = DIRECTION ( 'NONE',  ( 0.0000000000000000000, 1.000000000000000000, 0.0000000000000000000 ) ) ;
#191 = CARTESIAN_POINT ( 'NONE',  ( 8.999999999999996400, -14.99999999999999600, 2.000000000000000000 ) ) ;
#192 = COORDINATED_UNIVERSAL_TIME_OFFSET ( 5, 0, .BEHIND. ) ;
#193 = DIRECTION ( 'NONE',  ( 1.000000000000000000, 0.0000000000000000000, 0.0000000000000000000 ) ) ;
#194 = DATE_TIME_ROLE ( 'classification_date' ) ;
#195 = EDGE_CURVE ( 'NONE', #171, #50, #19, .T. ) ;
#196 = PERSON_AND_ORGANIZATION_ROLE ( 'design_supplier' ) ;
#197 = DIRECTION ( 'NONE',  ( -0.0000000000000000000, -0.0000000000000000000, -1.000000000000000000 ) ) ;
#198 = ORIENTED_EDGE ( 'NONE', *, *, #56, .F. ) ;
#199 = FACE_OUTER_BOUND ( 'NONE', #203, .T. ) ;
#200 = VERTEX_POINT ( 'NONE', #24 ) ;
#201 = CC_DESIGN_PERSON_AND_ORGANIZATION_ASSIGNMENT ( #72, #80, ( #92 ) ) ;
#202 = LOCAL_TIME ( 10, 19, 17.00000000000000000, #159 ) ;
#203 = EDGE_LOOP ( 'NONE', ( #219, #134, #57, #46 ) ) ;
#204 = CARTESIAN_POINT ( 'NONE',  ( 8.999999999999996400, -14.99999999999999600, 0.0000000000000000000 ) ) ;
#205 = CARTESIAN_POINT ( 'NONE',  ( -9.000000000000007100, 15.00000000000000400, 2.000000000000000000 ) ) ;
#206 = DIRECTION ( 'NONE',  ( -0.0000000000000000000, -0.0000000000000000000, -1.000000000000000000 ) ) ;
#207 = LINE ( 'NONE', #41, #71 ) ;
#208 = CARTESIAN_POINT ( 'NONE',  ( -9.000000000000007100, 15.00000000000000400, 2.000000000000000000 ) ) ;
#209 = DIRECTION ( 'NONE',  ( -1.000000000000000000, -0.0000000000000000000, -0.0000000000000000000 ) ) ;
#210 = ADVANCED_FACE ( 'NONE', ( #6 ), #100, .T. ) ;
#211 = APPROVAL_STATUS ( 'not_yet_approved' ) ;
#212 = DIRECTION ( 'NONE',  ( 1.000000000000000000, 1.156482317317871700E-016, -0.0000000000000000000 ) ) ;
#213 = CC_DESIGN_SECURITY_CLASSIFICATION ( #92, ( #21 ) ) ;
#214 = AXIS2_PLACEMENT_3D ( 'NONE', #233, #29, #48 ) ;
#215 = ADVANCED_FACE ( 'NONE', ( #199 ), #151, .F. ) ;
#216 = PRODUCT ( 'Web Model 46687', 'Web Model 46687', '', ( #169 ) ) ;
#217 = FACE_OUTER_BOUND ( 'NONE', #162, .T. ) ;
#218 = APPROVAL_DATE_TIME ( #140, #47 ) ;
#219 = ORIENTED_EDGE ( 'NONE', *, *, #235, .T. ) ;
#220 = CC_DESIGN_PERSON_AND_ORGANIZATION_ASSIGNMENT ( #222, #154, ( #216 ) ) ;
#221 = DATE_AND_TIME ( #86, #202 ) ;
#222 = PERSON_AND_ORGANIZATION ( #88, #61 ) ;
#223 =( NAMED_UNIT ( * ) PLANE_ANGLE_UNIT ( ) SI_UNIT ( $, .RADIAN. ) );
#224 = ORIENTED_EDGE ( 'NONE', *, *, #2, .F. ) ;
#225 = CARTESIAN_POINT ( 'NONE',  ( 8.999999999999996400, -14.99999999999999600, 2.000000000000000000 ) ) ;
#226 = ORIENTED_EDGE ( 'NONE', *, *, #79, .T. ) ;
#227 = DIRECTION ( 'NONE',  ( 0.0000000000000000000, -0.0000000000000000000, -1.000000000000000000 ) ) ;
#228 = ORIENTED_EDGE ( 'NONE', *, *, #34, .T. ) ;
#229 = APPROVAL_STATUS ( 'not_yet_approved' ) ;
#230 = APPLICATION_CONTEXT ( 'configuration controlled 3d designs of mechanical parts and assemblies' ) ;
#231 = APPROVAL_ROLE ( '' ) ;
#232 = ORIENTED_EDGE ( 'NONE', *, *, #89, .T. ) ;
#233 = CARTESIAN_POINT ( 'NONE',  ( 8.999999999999992900, 15.00000000000000400, 2.000000000000000000 ) ) ;
#234 = LINE ( 'NONE', #14, #33 ) ;
#235 = EDGE_CURVE ( 'NONE', #97, #107, #234, .T. ) ;
#236 = DIRECTION ( 'NONE',  ( 0.0000000000000000000, 0.0000000000000000000, 1.000000000000000000 ) ) ;
#237 = ORIENTED_EDGE ( 'NONE', *, *, #195, .T. ) ;
ENDSEC;
END-ISO-10303-21;
