ISO-10303-21;
HEADER;
FILE_DESCRIPTION (( 'STEP AP203' ),
    '1' );
FILE_NAME ('Web Model 83465.STEP',
    '2017-02-01T15:21:34',
    ( '' ),
    ( '' ),
    'SwSTEP 2.0',
    'SolidWorks 2016',
    '' );
FILE_SCHEMA (( 'CONFIG_CONTROL_DESIGN' ));
ENDSEC;

DATA;
#1 = FACE_OUTER_BOUND ( 'NONE', #149, .T. ) ;
#2 = CC_DESIGN_APPROVAL ( #19, ( #160 ) ) ;
#3 = CC_DESIGN_PERSON_AND_ORGANIZATION_ASSIGNMENT ( #29, #108, ( #71 ) ) ;
#4 = DATE_AND_TIME ( #56, #39 ) ;
#5 = APPROVAL_DATE_TIME ( #140, #129 ) ;
#6 = CIRCLE ( 'NONE', #124, 4.500000000000000000 ) ;
#7 = ADVANCED_FACE ( 'NONE', ( #31 ), #107, .T. ) ;
#8 = EDGE_CURVE ( 'NONE', #23, #57, #6, .T. ) ;
#9 = DIRECTION ( 'NONE',  ( 0.0000000000000000000, 0.0000000000000000000, 1.000000000000000000 ) ) ;
#10 = DIRECTION ( 'NONE',  ( -0.0000000000000000000, -0.0000000000000000000, -1.000000000000000000 ) ) ;
#11 = CARTESIAN_POINT ( 'NONE',  ( 0.0000000000000000000, 0.0000000000000000000, 2.000000000000000000 ) ) ;
#12 = CC_DESIGN_PERSON_AND_ORGANIZATION_ASSIGNMENT ( #41, #162, ( #160 ) ) ;
#13 = VERTEX_POINT ( 'NONE', #50 ) ;
#14 = DIRECTION ( 'NONE',  ( 1.000000000000000000, 0.0000000000000000000, 0.0000000000000000000 ) ) ;
#15 = APPROVAL_ROLE ( '' ) ;
#16 = AXIS2_PLACEMENT_3D ( 'NONE', #102, #155, #115 ) ;
#17 = PERSON_AND_ORGANIZATION_ROLE ( 'creator' ) ;
#18 = ADVANCED_BREP_SHAPE_REPRESENTATION ( 'Web Model 83465', ( #151, #22 ), #153 ) ;
#19 = APPROVAL ( #174, 'UNSPECIFIED' ) ;
#20 = FACE_OUTER_BOUND ( 'NONE', #113, .T. ) ;
#21 = AXIS2_PLACEMENT_3D ( 'NONE', #116, #27, #106 ) ;
#22 = AXIS2_PLACEMENT_3D ( 'NONE', #145, #70, #86 ) ;
#23 = VERTEX_POINT ( 'NONE', #30 ) ;
#24 = CC_DESIGN_DATE_AND_TIME_ASSIGNMENT ( #55, #34, ( #160 ) ) ;
#25 = ADVANCED_FACE ( 'NONE', ( #91 ), #104, .T. ) ;
#26 = ORGANIZATION ( 'UNSPECIFIED', 'UNSPECIFIED', '' ) ;
#27 = DIRECTION ( 'NONE',  ( 0.0000000000000000000, 0.0000000000000000000, 1.000000000000000000 ) ) ;
#28 = CARTESIAN_POINT ( 'NONE',  ( 0.0000000000000000000, 0.0000000000000000000, 0.0000000000000000000 ) ) ;
#29 = PERSON_AND_ORGANIZATION ( #77, #26 ) ;
#30 = CARTESIAN_POINT ( 'NONE',  ( 4.500000000000000000, 5.510910596163088600E-016, 2.000000000000000000 ) ) ;
#31 = FACE_OUTER_BOUND ( 'NONE', #127, .T. ) ;
#32 = DIRECTION ( 'NONE',  ( -1.000000000000000000, 0.0000000000000000000, 0.0000000000000000000 ) ) ;
#33 = DIRECTION ( 'NONE',  ( -0.0000000000000000000, -0.0000000000000000000, -1.000000000000000000 ) ) ;
#34 = DATE_TIME_ROLE ( 'creation_date' ) ;
#35 = AXIS2_PLACEMENT_3D ( 'NONE', #157, #172, #97 ) ;
#36 = APPROVAL_DATE_TIME ( #4, #38 ) ;
#37 = CC_DESIGN_PERSON_AND_ORGANIZATION_ASSIGNMENT ( #130, #138, ( #152 ) ) ;
#38 = APPROVAL ( #122, 'UNSPECIFIED' ) ;
#39 = LOCAL_TIME ( 10, 21, 34.00000000000000000, #135 ) ;
#40 = CIRCLE ( 'NONE', #16, 4.500000000000000000 ) ;
#41 = PERSON_AND_ORGANIZATION ( #77, #26 ) ;
#42 = AXIS2_PLACEMENT_3D ( 'NONE', #83, #117, #105 ) ;
#43 = ORIENTED_EDGE ( 'NONE', *, *, #8, .T. ) ;
#44 = LOCAL_TIME ( 10, 21, 34.00000000000000000, #47 ) ;
#45 = ORIENTED_EDGE ( 'NONE', *, *, #175, .F. ) ;
#46 = CC_DESIGN_APPROVAL ( #129, ( #59 ) ) ;
#47 = COORDINATED_UNIVERSAL_TIME_OFFSET ( 5, 0, .BEHIND. ) ;
#48 = DATE_AND_TIME ( #76, #44 ) ;
#49 = CARTESIAN_POINT ( 'NONE',  ( -4.500000000000000000, 0.0000000000000000000, 0.0000000000000000000 ) ) ;
#50 = CARTESIAN_POINT ( 'NONE',  ( 4.500000000000000000, 5.510910596163088600E-016, 0.0000000000000000000 ) ) ;
#51 = UNCERTAINTY_MEASURE_WITH_UNIT (LENGTH_MEASURE( 1.000000000000000100E-005 ), #94, 'distance_accuracy_value', 'NONE');
#52 = ORIENTED_EDGE ( 'NONE', *, *, #146, .T. ) ;
#53 = APPLICATION_CONTEXT ( 'configuration controlled 3d designs of mechanical parts and assemblies' ) ;
#54 = VECTOR ( 'NONE', #10, 1000.000000000000000 ) ;
#55 = DATE_AND_TIME ( #131, #170 ) ;
#56 = CALENDAR_DATE ( 2017, 1, 2 ) ;
#57 = VERTEX_POINT ( 'NONE', #93 ) ;
#58 = CC_DESIGN_APPROVAL ( #38, ( #71 ) ) ;
#59 = SECURITY_CLASSIFICATION ( '', '', #143 ) ;
#60 = CC_DESIGN_DATE_AND_TIME_ASSIGNMENT ( #139, #161, ( #59 ) ) ;
#61 = ORIENTED_EDGE ( 'NONE', *, *, #79, .T. ) ;
#62 = PERSON_AND_ORGANIZATION ( #77, #26 ) ;
#63 = PLANE ( 'NONE',  #42 ) ;
#64 = ORIENTED_EDGE ( 'NONE', *, *, #175, .T. ) ;
#65 =( NAMED_UNIT ( * ) PLANE_ANGLE_UNIT ( ) SI_UNIT ( $, .RADIAN. ) );
#66 = DIRECTION ( 'NONE',  ( -1.000000000000000000, 0.0000000000000000000, 0.0000000000000000000 ) ) ;
#67 = APPROVAL_ROLE ( '' ) ;
#68 = DIRECTION ( 'NONE',  ( 0.0000000000000000000, 0.0000000000000000000, 1.000000000000000000 ) ) ;
#69 = APPLICATION_PROTOCOL_DEFINITION ( 'international standard', 'config_control_design', 1994, #84 ) ;
#70 = DIRECTION ( 'NONE',  ( 0.0000000000000000000, 0.0000000000000000000, 1.000000000000000000 ) ) ;
#71 = PRODUCT_DEFINITION_FORMATION_WITH_SPECIFIED_SOURCE ( 'ANY', '', #152, .NOT_KNOWN. ) ;
#72 = DESIGN_CONTEXT ( 'detailed design', #53, 'design' ) ;
#73 = ORIENTED_EDGE ( 'NONE', *, *, #146, .F. ) ;
#74 = EDGE_CURVE ( 'NONE', #57, #23, #40, .T. ) ;
#75 = SHAPE_DEFINITION_REPRESENTATION ( #169, #18 ) ;
#76 = CALENDAR_DATE ( 2017, 1, 2 ) ;
#77 = PERSON ( 'UNSPECIFIED', 'UNSPECIFIED', 'UNSPECIFIED', ('UNSPECIFIED'), ('UNSPECIFIED'), ('UNSPECIFIED') ) ;
#78 = LOCAL_TIME ( 10, 21, 34.00000000000000000, #165 ) ;
#79 = EDGE_CURVE ( 'NONE', #13, #85, #132, .T. ) ;
#80 = ADVANCED_FACE ( 'NONE', ( #20 ), #63, .F. ) ;
#81 = DIRECTION ( 'NONE',  ( 1.000000000000000000, 0.0000000000000000000, 0.0000000000000000000 ) ) ;
#82 = CARTESIAN_POINT ( 'NONE',  ( 4.500000000000000000, 5.510910596163088600E-016, 2.000000000000000000 ) ) ;
#83 = CARTESIAN_POINT ( 'NONE',  ( 0.0000000000000000000, 0.0000000000000000000, 0.0000000000000000000 ) ) ;
#84 = APPLICATION_CONTEXT ( 'configuration controlled 3d designs of mechanical parts and assemblies' ) ;
#85 = VERTEX_POINT ( 'NONE', #49 ) ;
#86 = DIRECTION ( 'NONE',  ( 1.000000000000000000, 0.0000000000000000000, 0.0000000000000000000 ) ) ;
#87 = CLOSED_SHELL ( 'NONE', ( #134, #25, #7, #80 ) ) ;
#88 = LOCAL_TIME ( 10, 21, 34.00000000000000000, #121 ) ;
#89 = APPROVAL_PERSON_ORGANIZATION ( #92, #19, #15 ) ;
#90 = PERSON_AND_ORGANIZATION ( #77, #26 ) ;
#91 = FACE_OUTER_BOUND ( 'NONE', #159, .T. ) ;
#92 = PERSON_AND_ORGANIZATION ( #77, #26 ) ;
#93 = CARTESIAN_POINT ( 'NONE',  ( -4.500000000000000000, 0.0000000000000000000, 2.000000000000000000 ) ) ;
#94 =( LENGTH_UNIT ( ) NAMED_UNIT ( * ) SI_UNIT ( .MILLI., .METRE. ) );
#95 = ORIENTED_EDGE ( 'NONE', *, *, #74, .T. ) ;
#96 = APPROVAL_STATUS ( 'not_yet_approved' ) ;
#97 = DIRECTION ( 'NONE',  ( 1.000000000000000000, 0.0000000000000000000, 0.0000000000000000000 ) ) ;
#98 = MECHANICAL_CONTEXT ( 'NONE', #84, 'mechanical' ) ;
#99 = APPROVAL_ROLE ( '' ) ;
#100 = CC_DESIGN_SECURITY_CLASSIFICATION ( #59, ( #71 ) ) ;
#101 = ORIENTED_EDGE ( 'NONE', *, *, #168, .F. ) ;
#102 = CARTESIAN_POINT ( 'NONE',  ( 0.0000000000000000000, 0.0000000000000000000, 2.000000000000000000 ) ) ;
#103 = CARTESIAN_POINT ( 'NONE',  ( 0.0000000000000000000, 0.0000000000000000000, 2.000000000000000000 ) ) ;
#104 = CYLINDRICAL_SURFACE ( 'NONE', #154, 4.500000000000000000 ) ;
#105 = DIRECTION ( 'NONE',  ( 1.000000000000000000, 0.0000000000000000000, -0.0000000000000000000 ) ) ;
#106 = DIRECTION ( 'NONE',  ( 1.000000000000000000, 0.0000000000000000000, -0.0000000000000000000 ) ) ;
#107 = PLANE ( 'NONE',  #21 ) ;
#108 = PERSON_AND_ORGANIZATION_ROLE ( 'design_supplier' ) ;
#109 = APPROVAL_PERSON_ORGANIZATION ( #62, #129, #67 ) ;
#110 = APPROVAL_DATE_TIME ( #48, #19 ) ;
#111 = AXIS2_PLACEMENT_3D ( 'NONE', #11, #147, #32 ) ;
#112 = PERSON_AND_ORGANIZATION ( #77, #26 ) ;
#113 = EDGE_LOOP ( 'NONE', ( #73, #136 ) ) ;
#114 = CALENDAR_DATE ( 2017, 1, 2 ) ;
#115 = DIRECTION ( 'NONE',  ( 1.000000000000000000, 0.0000000000000000000, 0.0000000000000000000 ) ) ;
#116 = CARTESIAN_POINT ( 'NONE',  ( 0.0000000000000000000, 0.0000000000000000000, 2.000000000000000000 ) ) ;
#117 = DIRECTION ( 'NONE',  ( 0.0000000000000000000, 0.0000000000000000000, 1.000000000000000000 ) ) ;
#118 = CARTESIAN_POINT ( 'NONE',  ( 0.0000000000000000000, 0.0000000000000000000, 2.000000000000000000 ) ) ;
#119 = PERSON_AND_ORGANIZATION_ROLE ( 'classification_officer' ) ;
#120 = ORIENTED_EDGE ( 'NONE', *, *, #168, .T. ) ;
#121 = COORDINATED_UNIVERSAL_TIME_OFFSET ( 5, 0, .BEHIND. ) ;
#122 = APPROVAL_STATUS ( 'not_yet_approved' ) ;
#123 = AXIS2_PLACEMENT_3D ( 'NONE', #28, #9, #81 ) ;
#124 = AXIS2_PLACEMENT_3D ( 'NONE', #118, #68, #14 ) ;
#125 = CYLINDRICAL_SURFACE ( 'NONE', #111, 4.500000000000000000 ) ;
#126 = APPROVAL_PERSON_ORGANIZATION ( #156, #38, #99 ) ;
#127 = EDGE_LOOP ( 'NONE', ( #95, #43 ) ) ;
#128 = CALENDAR_DATE ( 2017, 1, 2 ) ;
#129 = APPROVAL ( #96, 'UNSPECIFIED' ) ;
#130 = PERSON_AND_ORGANIZATION ( #77, #26 ) ;
#131 = CALENDAR_DATE ( 2017, 1, 2 ) ;
#132 = CIRCLE ( 'NONE', #35, 4.500000000000000000 ) ;
#133 = CIRCLE ( 'NONE', #123, 4.500000000000000000 ) ;
#134 = ADVANCED_FACE ( 'NONE', ( #1 ), #125, .T. ) ;
#135 = COORDINATED_UNIVERSAL_TIME_OFFSET ( 5, 0, .BEHIND. ) ;
#136 = ORIENTED_EDGE ( 'NONE', *, *, #79, .F. ) ;
#137 = CC_DESIGN_PERSON_AND_ORGANIZATION_ASSIGNMENT ( #90, #17, ( #71 ) ) ;
#138 = PERSON_AND_ORGANIZATION_ROLE ( 'design_owner' ) ;
#139 = DATE_AND_TIME ( #128, #78 ) ;
#140 = DATE_AND_TIME ( #114, #88 ) ;
#141 = CARTESIAN_POINT ( 'NONE',  ( -4.500000000000000000, 0.0000000000000000000, 2.000000000000000000 ) ) ;
#142 = VECTOR ( 'NONE', #171, 1000.000000000000000 ) ;
#143 = SECURITY_CLASSIFICATION_LEVEL ( 'unclassified' ) ;
#144 = ORIENTED_EDGE ( 'NONE', *, *, #74, .F. ) ;
#145 = CARTESIAN_POINT ( 'NONE',  ( 0.0000000000000000000, 0.0000000000000000000, 0.0000000000000000000 ) ) ;
#146 = EDGE_CURVE ( 'NONE', #85, #13, #133, .T. ) ;
#147 = DIRECTION ( 'NONE',  ( -0.0000000000000000000, -0.0000000000000000000, -1.000000000000000000 ) ) ;
#148 = LINE ( 'NONE', #141, #142 ) ;
#149 = EDGE_LOOP ( 'NONE', ( #167, #64, #61, #101 ) ) ;
#150 = PRODUCT_RELATED_PRODUCT_CATEGORY ( 'detail', '', ( #152 ) ) ;
#151 = MANIFOLD_SOLID_BREP ( 'Extrude1', #87 ) ;
#152 = PRODUCT ( 'Web Model 83465', 'Web Model 83465', '', ( #98 ) ) ;
#153 =( GEOMETRIC_REPRESENTATION_CONTEXT ( 3 ) GLOBAL_UNCERTAINTY_ASSIGNED_CONTEXT ( ( #51 ) ) GLOBAL_UNIT_ASSIGNED_CONTEXT ( ( #94, #65, #158 ) ) REPRESENTATION_CONTEXT ( 'NONE', 'WORKASPACE' ) );
#154 = AXIS2_PLACEMENT_3D ( 'NONE', #103, #33, #66 ) ;
#155 = DIRECTION ( 'NONE',  ( 0.0000000000000000000, 0.0000000000000000000, 1.000000000000000000 ) ) ;
#156 = PERSON_AND_ORGANIZATION ( #77, #26 ) ;
#157 = CARTESIAN_POINT ( 'NONE',  ( 0.0000000000000000000, 0.0000000000000000000, 0.0000000000000000000 ) ) ;
#158 =( NAMED_UNIT ( * ) SI_UNIT ( $, .STERADIAN. ) SOLID_ANGLE_UNIT ( ) );
#159 = EDGE_LOOP ( 'NONE', ( #45, #144, #120, #52 ) ) ;
#160 = PRODUCT_DEFINITION ( 'UNKNOWN', '', #71, #72 ) ;
#161 = DATE_TIME_ROLE ( 'classification_date' ) ;
#162 = PERSON_AND_ORGANIZATION_ROLE ( 'creator' ) ;
#163 = CC_DESIGN_PERSON_AND_ORGANIZATION_ASSIGNMENT ( #112, #119, ( #59 ) ) ;
#164 = COORDINATED_UNIVERSAL_TIME_OFFSET ( 5, 0, .BEHIND. ) ;
#165 = COORDINATED_UNIVERSAL_TIME_OFFSET ( 5, 0, .BEHIND. ) ;
#166 = LINE ( 'NONE', #82, #54 ) ;
#167 = ORIENTED_EDGE ( 'NONE', *, *, #8, .F. ) ;
#168 = EDGE_CURVE ( 'NONE', #57, #85, #148, .T. ) ;
#169 = PRODUCT_DEFINITION_SHAPE ( 'NONE', 'NONE',  #160 ) ;
#170 = LOCAL_TIME ( 10, 21, 34.00000000000000000, #164 ) ;
#171 = DIRECTION ( 'NONE',  ( -0.0000000000000000000, -0.0000000000000000000, -1.000000000000000000 ) ) ;
#172 = DIRECTION ( 'NONE',  ( 0.0000000000000000000, 0.0000000000000000000, 1.000000000000000000 ) ) ;
#173 = APPLICATION_PROTOCOL_DEFINITION ( 'international standard', 'config_control_design', 1994, #53 ) ;
#174 = APPROVAL_STATUS ( 'not_yet_approved' ) ;
#175 = EDGE_CURVE ( 'NONE', #23, #13, #166, .T. ) ;
ENDSEC;
END-ISO-10303-21;
