ISO-10303-21;
HEADER;
FILE_DESCRIPTION (( 'STEP AP203' ),
    '1' );
FILE_NAME ('Web Model 11877_11886.step',
    '2019-01-02T18:29:29',
    ( '' ),
    ( '' ),
    'SwSTEP 2.0',
    'SolidWorks 2016',
    '' );
FILE_SCHEMA (( 'CONFIG_CONTROL_DESIGN' ));
ENDSEC;

DATA;
#1 = LINE ( 'NONE', #178, #103 ) ;
#2 = ADVANCED_FACE ( 'NONE', ( #118 ), #88, .T. ) ;
#3 = ORIENTED_EDGE ( 'NONE', *, *, #171, .F. ) ;
#4 = EDGE_CURVE ( 'NONE', #213, #47, #185, .T. ) ;
#5 = VECTOR ( 'NONE', #93, 1000.000000000000000 ) ;
#6 = CIRCLE ( 'NONE', #51, 12.50000000000000000 ) ;
#7 = AXIS2_PLACEMENT_3D ( 'NONE', #131, #129, #92 ) ;
#8 = CARTESIAN_POINT ( 'NONE',  ( -0.9499999999999968500, 0.0000000000000000000, 0.0000000000000000000 ) ) ;
#9 = EDGE_CURVE ( 'NONE', #145, #192, #6, .T. ) ;
#10 = CIRCLE ( 'NONE', #36, 12.50000000000000000 ) ;
#11 = APPROVAL_DATE_TIME ( #30, #210 ) ;
#12 = CARTESIAN_POINT ( 'NONE',  ( 1.000000000000000000, 0.0000000000000000000, 0.0000000000000000000 ) ) ;
#13 = CONICAL_SURFACE ( 'NONE', #128, 12.50000000000000000, 0.7853981633974309600 ) ;
#14 = ORIENTED_EDGE ( 'NONE', *, *, #26, .F. ) ;
#15 = DIRECTION ( 'NONE',  ( 0.0000000000000000000, 0.0000000000000000000, -1.000000000000000000 ) ) ;
#16 = EDGE_CURVE ( 'NONE', #47, #213, #67, .T. ) ;
#17 = APPLICATION_PROTOCOL_DEFINITION ( 'international standard', 'config_control_design', 1994, #96 ) ;
#18 = CARTESIAN_POINT ( 'NONE',  ( -1.000000000000000000, 0.0000000000000000000, 0.0000000000000000000 ) ) ;
#19 = DATE_AND_TIME ( #121, #184 ) ;
#20 = DIRECTION ( 'NONE',  ( -1.000000000000000000, -0.0000000000000000000, -0.0000000000000000000 ) ) ;
#21 = APPROVAL_STATUS ( 'not_yet_approved' ) ;
#22 = ADVANCED_FACE ( 'NONE', ( #123 ), #13, .T. ) ;
#23 = AXIS2_PLACEMENT_3D ( 'NONE', #54, #111, #240 ) ;
#24 = EDGE_CURVE ( 'NONE', #47, #231, #124, .T. ) ;
#25 = CC_DESIGN_PERSON_AND_ORGANIZATION_ASSIGNMENT ( #127, #57, ( #132 ) ) ;
#26 = EDGE_CURVE ( 'NONE', #147, #231, #116, .T. ) ;
#27 = CC_DESIGN_PERSON_AND_ORGANIZATION_ASSIGNMENT ( #236, #189, ( #89 ) ) ;
#28 = PERSON_AND_ORGANIZATION ( #162, #44 ) ;
#29 = DIRECTION ( 'NONE',  ( 1.000000000000000000, 0.0000000000000000000, 0.0000000000000000000 ) ) ;
#30 = DATE_AND_TIME ( #71, #199 ) ;
#31 = DIRECTION ( 'NONE',  ( 1.000000000000000000, -0.0000000000000000000, -0.0000000000000000000 ) ) ;
#32 = EDGE_LOOP ( 'NONE', ( #165, #260, #113, #164 ) ) ;
#33 = ORIENTED_EDGE ( 'NONE', *, *, #233, .F. ) ;
#34 = CC_DESIGN_PERSON_AND_ORGANIZATION_ASSIGNMENT ( #98, #43, ( #55 ) ) ;
#35 = CARTESIAN_POINT ( 'NONE',  ( -0.9499999999999968500, 1.530808498934191500E-015, -12.50000000000000000 ) ) ;
#36 = AXIS2_PLACEMENT_3D ( 'NONE', #90, #41, #95 ) ;
#37 =( LENGTH_UNIT ( ) NAMED_UNIT ( * ) SI_UNIT ( .MILLI., .METRE. ) );
#38 = CARTESIAN_POINT ( 'NONE',  ( 1.000000000000000000, 0.0000000000000000000, 12.45000000000000300 ) ) ;
#39 = LOCAL_TIME ( 13, 29, 29.00000000000000000, #151 ) ;
#40 = ORIENTED_EDGE ( 'NONE', *, *, #268, .T. ) ;
#41 = DIRECTION ( 'NONE',  ( 1.000000000000000000, -0.0000000000000000000, -0.0000000000000000000 ) ) ;
#42 = COORDINATED_UNIVERSAL_TIME_OFFSET ( 5, 0, .BEHIND. ) ;
#43 = PERSON_AND_ORGANIZATION_ROLE ( 'design_supplier' ) ;
#44 = ORGANIZATION ( 'UNSPECIFIED', 'UNSPECIFIED', '' ) ;
#45 = CC_DESIGN_DATE_AND_TIME_ASSIGNMENT ( #196, #230, ( #89 ) ) ;
#46 = APPROVAL_ROLE ( '' ) ;
#47 = VERTEX_POINT ( 'NONE', #135 ) ;
#48 = FACE_OUTER_BOUND ( 'NONE', #248, .T. ) ;
#49 = COORDINATED_UNIVERSAL_TIME_OFFSET ( 5, 0, .BEHIND. ) ;
#50 = ORIENTED_EDGE ( 'NONE', *, *, #217, .F. ) ;
#51 = AXIS2_PLACEMENT_3D ( 'NONE', #8, #261, #87 ) ;
#52 = DIRECTION ( 'NONE',  ( 0.0000000000000000000, 0.0000000000000000000, -1.000000000000000000 ) ) ;
#53 = CARTESIAN_POINT ( 'NONE',  ( 1.000000000000000000, 0.0000000000000000000, 0.0000000000000000000 ) ) ;
#54 = CARTESIAN_POINT ( 'NONE',  ( 1.000000000000000000, 0.0000000000000000000, 0.0000000000000000000 ) ) ;
#55 = PRODUCT_DEFINITION_FORMATION_WITH_SPECIFIED_SOURCE ( 'ANY', '', #132, .NOT_KNOWN. ) ;
#56 = DIRECTION ( 'NONE',  ( 0.0000000000000000000, 0.0000000000000000000, -1.000000000000000000 ) ) ;
#57 = PERSON_AND_ORGANIZATION_ROLE ( 'design_owner' ) ;
#58 = CARTESIAN_POINT ( 'NONE',  ( -1.000000000000000000, 0.0000000000000000000, 0.0000000000000000000 ) ) ;
#59 = COORDINATED_UNIVERSAL_TIME_OFFSET ( 5, 0, .BEHIND. ) ;
#60 = AXIS2_PLACEMENT_3D ( 'NONE', #12, #263, #222 ) ;
#61 = CARTESIAN_POINT ( 'NONE',  ( 0.0000000000000000000, 0.0000000000000000000, 0.0000000000000000000 ) ) ;
#62 = CONICAL_SURFACE ( 'NONE', #234, 12.45000000000000300, 0.7853981633975003500 ) ;
#63 = APPROVAL_STATUS ( 'not_yet_approved' ) ;
#64 = PERSON_AND_ORGANIZATION_ROLE ( 'classification_officer' ) ;
#65 = LINE ( 'NONE', #115, #216 ) ;
#66 = AXIS2_PLACEMENT_3D ( 'NONE', #58, #186, #208 ) ;
#67 = CIRCLE ( 'NONE', #114, 12.45000000000000300 ) ;
#68 = AXIS2_PLACEMENT_3D ( 'NONE', #249, #166, #78 ) ;
#69 = DIRECTION ( 'NONE',  ( -1.000000000000000000, 0.0000000000000000000, 0.0000000000000000000 ) ) ;
#70 = ORIENTED_EDGE ( 'NONE', *, *, #233, .T. ) ;
#71 = CALENDAR_DATE ( 2019, 2, 1 ) ;
#72 = DIRECTION ( 'NONE',  ( 0.0000000000000000000, 0.0000000000000000000, -1.000000000000000000 ) ) ;
#73 = ORIENTED_EDGE ( 'NONE', *, *, #102, .F. ) ;
#74 = ORIENTED_EDGE ( 'NONE', *, *, #24, .T. ) ;
#75 = CARTESIAN_POINT ( 'NONE',  ( 1.000000000000000000, 0.0000000000000000000, 12.45000000000000300 ) ) ;
#76 = DIRECTION ( 'NONE',  ( -1.000000000000000000, 0.0000000000000000000, 0.0000000000000000000 ) ) ;
#77 = CARTESIAN_POINT ( 'NONE',  ( -1.000000000000000000, 0.0000000000000000000, 0.0000000000000000000 ) ) ;
#78 = DIRECTION ( 'NONE',  ( 0.0000000000000000000, 0.0000000000000000000, -1.000000000000000000 ) ) ;
#79 = COORDINATED_UNIVERSAL_TIME_OFFSET ( 5, 0, .BEHIND. ) ;
#80 = VECTOR ( 'NONE', #265, 1000.000000000000000 ) ;
#81 = ORIENTED_EDGE ( 'NONE', *, *, #193, .T. ) ;
#82 = ORIENTED_EDGE ( 'NONE', *, *, #257, .F. ) ;
#83 = APPROVAL_DATE_TIME ( #19, #134 ) ;
#84 = FACE_OUTER_BOUND ( 'NONE', #97, .T. ) ;
#85 = UNCERTAINTY_MEASURE_WITH_UNIT (LENGTH_MEASURE( 1.000000000000000100E-005 ), #37, 'distance_accuracy_value', 'NONE');
#86 = APPROVAL_DATE_TIME ( #215, #126 ) ;
#87 = DIRECTION ( 'NONE',  ( 0.0000000000000000000, 0.0000000000000000000, -1.000000000000000000 ) ) ;
#88 = PLANE ( 'NONE',  #23 ) ;
#89 = PRODUCT_DEFINITION ( 'UNKNOWN', '', #55, #156 ) ;
#90 = CARTESIAN_POINT ( 'NONE',  ( -0.9499999999999968500, 0.0000000000000000000, 0.0000000000000000000 ) ) ;
#91 = ORIENTED_EDGE ( 'NONE', *, *, #102, .T. ) ;
#92 = DIRECTION ( 'NONE',  ( 0.0000000000000000000, 0.0000000000000000000, -1.000000000000000000 ) ) ;
#93 = DIRECTION ( 'NONE',  ( -0.7071067811865107100, 0.0000000000000000000, 0.7071067811865843200 ) ) ;
#94 = EDGE_LOOP ( 'NONE', ( #259, #70 ) ) ;
#95 = DIRECTION ( 'NONE',  ( 0.0000000000000000000, 0.0000000000000000000, -1.000000000000000000 ) ) ;
#96 = APPLICATION_CONTEXT ( 'configuration controlled 3d designs of mechanical parts and assemblies' ) ;
#97 = EDGE_LOOP ( 'NONE', ( #3, #82, #207, #256 ) ) ;
#98 = PERSON_AND_ORGANIZATION ( #162, #44 ) ;
#99 = ADVANCED_FACE ( 'NONE', ( #48 ), #219, .T. ) ;
#100 = AXIS2_PLACEMENT_3D ( 'NONE', #61, #167, #204 ) ;
#101 = LINE ( 'NONE', #38, #5 ) ;
#102 = EDGE_CURVE ( 'NONE', #231, #145, #226, .T. ) ;
#103 = VECTOR ( 'NONE', #201, 1000.000000000000000 ) ;
#104 = ORIENTED_EDGE ( 'NONE', *, *, #4, .T. ) ;
#105 = APPROVAL_PERSON_ORGANIZATION ( #209, #210, #46 ) ;
#106 = AXIS2_PLACEMENT_3D ( 'NONE', #163, #157, #177 ) ;
#107 = CONICAL_SURFACE ( 'NONE', #194, 12.50000000000000000, 0.7853981633974309600 ) ;
#108 = CLOSED_SHELL ( 'NONE', ( #22, #122, #99, #275, #2, #190, #187, #120 ) ) ;
#109 = CARTESIAN_POINT ( 'NONE',  ( -0.9499999999999968500, 0.0000000000000000000, 0.0000000000000000000 ) ) ;
#110 = APPROVAL_PERSON_ORGANIZATION ( #267, #126, #141 ) ;
#111 = DIRECTION ( 'NONE',  ( 1.000000000000000000, 0.0000000000000000000, 0.0000000000000000000 ) ) ;
#112 = CC_DESIGN_PERSON_AND_ORGANIZATION_ASSIGNMENT ( #149, #64, ( #182 ) ) ;
#113 = ORIENTED_EDGE ( 'NONE', *, *, #217, .T. ) ;
#114 = AXIS2_PLACEMENT_3D ( 'NONE', #53, #29, #161 ) ;
#115 = CARTESIAN_POINT ( 'NONE',  ( -0.9499999999999968500, 0.0000000000000000000, -12.50000000000000000 ) ) ;
#116 = CIRCLE ( 'NONE', #264, 12.50000000000000000 ) ;
#117 = APPLICATION_CONTEXT ( 'configuration controlled 3d designs of mechanical parts and assemblies' ) ;
#118 = FACE_OUTER_BOUND ( 'NONE', #220, .T. ) ;
#119 = EDGE_LOOP ( 'NONE', ( #73, #81, #40, #175 ) ) ;
#120 = ADVANCED_FACE ( 'NONE', ( #84 ), #107, .T. ) ;
#121 = CALENDAR_DATE ( 2019, 2, 1 ) ;
#122 = ADVANCED_FACE ( 'NONE', ( #241 ), #174, .T. ) ;
#123 = FACE_OUTER_BOUND ( 'NONE', #138, .T. ) ;
#124 = LINE ( 'NONE', #154, #176 ) ;
#125 = ORIENTED_EDGE ( 'NONE', *, *, #9, .F. ) ;
#126 = APPROVAL ( #179, 'UNSPECIFIED' ) ;
#127 = PERSON_AND_ORGANIZATION ( #162, #44 ) ;
#128 = AXIS2_PLACEMENT_3D ( 'NONE', #109, #225, #56 ) ;
#129 = DIRECTION ( 'NONE',  ( 1.000000000000000000, 0.0000000000000000000, 0.0000000000000000000 ) ) ;
#130 = CARTESIAN_POINT ( 'NONE',  ( -0.9499999999999968500, 0.0000000000000000000, 0.0000000000000000000 ) ) ;
#131 = CARTESIAN_POINT ( 'NONE',  ( 1.000000000000000000, 0.0000000000000000000, 0.0000000000000000000 ) ) ;
#132 = PRODUCT ( 'Web Model 11877_11886', 'Web Model 11877_11886', '', ( #250 ) ) ;
#133 = FACE_OUTER_BOUND ( 'NONE', #32, .T. ) ;
#134 = APPROVAL ( #63, 'UNSPECIFIED' ) ;
#135 = CARTESIAN_POINT ( 'NONE',  ( 1.000000000000000000, 1.527746881936323400E-015, -12.45000000000000300 ) ) ;
#136 = CARTESIAN_POINT ( 'NONE',  ( -1.000000000000000000, 1.527746881936323000E-015, 12.44999999999999900 ) ) ;
#137 = DIRECTION ( 'NONE',  ( 1.000000000000000000, 0.0000000000000000000, 0.0000000000000000000 ) ) ;
#138 = EDGE_LOOP ( 'NONE', ( #33, #159, #125, #232 ) ) ;
#139 = AXIS2_PLACEMENT_3D ( 'NONE', #77, #137, #15 ) ;
#140 = CARTESIAN_POINT ( 'NONE',  ( -0.9499999999999968500, 0.0000000000000000000, 12.50000000000000000 ) ) ;
#141 = APPROVAL_ROLE ( '' ) ;
#142 = EDGE_CURVE ( 'NONE', #192, #145, #10, .T. ) ;
#143 = VECTOR ( 'NONE', #239, 1000.000000000000000 ) ;
#144 = PERSON_AND_ORGANIZATION_ROLE ( 'creator' ) ;
#145 = VERTEX_POINT ( 'NONE', #35 ) ;
#146 = APPROVAL_ROLE ( '' ) ;
#147 = VERTEX_POINT ( 'NONE', #197 ) ;
#148 = MANIFOLD_SOLID_BREP ( 'Chamfer1', #108 ) ;
#149 = PERSON_AND_ORGANIZATION ( #162, #44 ) ;
#150 = CC_DESIGN_APPROVAL ( #134, ( #55 ) ) ;
#151 = COORDINATED_UNIVERSAL_TIME_OFFSET ( 5, 0, .BEHIND. ) ;
#152 = ORIENTED_EDGE ( 'NONE', *, *, #16, .T. ) ;
#153 = DATE_AND_TIME ( #270, #221 ) ;
#154 = CARTESIAN_POINT ( 'NONE',  ( 1.000000000000000000, 1.524685264938455200E-015, -12.45000000000000300 ) ) ;
#155 =( GEOMETRIC_REPRESENTATION_CONTEXT ( 3 ) GLOBAL_UNCERTAINTY_ASSIGNED_CONTEXT ( ( #85 ) ) GLOBAL_UNIT_ASSIGNED_CONTEXT ( ( #37, #269, #180 ) ) REPRESENTATION_CONTEXT ( 'NONE', 'WORKASPACE' ) );
#156 = DESIGN_CONTEXT ( 'detailed design', #117, 'design' ) ;
#157 = DIRECTION ( 'NONE',  ( -1.000000000000000000, 0.0000000000000000000, 0.0000000000000000000 ) ) ;
#158 = EDGE_LOOP ( 'NONE', ( #242, #74, #14, #50 ) ) ;
#159 = ORIENTED_EDGE ( 'NONE', *, *, #171, .T. ) ;
#160 = PERSON_AND_ORGANIZATION ( #162, #44 ) ;
#161 = DIRECTION ( 'NONE',  ( 0.0000000000000000000, 0.0000000000000000000, -1.000000000000000000 ) ) ;
#162 = PERSON ( 'UNSPECIFIED', 'UNSPECIFIED', 'UNSPECIFIED', ('UNSPECIFIED'), ('UNSPECIFIED'), ('UNSPECIFIED') ) ;
#163 = CARTESIAN_POINT ( 'NONE',  ( 1.000000000000000000, 0.0000000000000000000, 0.0000000000000000000 ) ) ;
#164 = ORIENTED_EDGE ( 'NONE', *, *, #193, .F. ) ;
#165 = ORIENTED_EDGE ( 'NONE', *, *, #24, .F. ) ;
#166 = DIRECTION ( 'NONE',  ( -1.000000000000000000, 0.0000000000000000000, 0.0000000000000000000 ) ) ;
#167 = DIRECTION ( 'NONE',  ( 0.0000000000000000000, 0.0000000000000000000, 1.000000000000000000 ) ) ;
#168 = DIRECTION ( 'NONE',  ( 0.0000000000000000000, 0.0000000000000000000, -1.000000000000000000 ) ) ;
#169 = DIRECTION ( 'NONE',  ( -1.000000000000000000, -0.0000000000000000000, -0.0000000000000000000 ) ) ;
#170 = SHAPE_DEFINITION_REPRESENTATION ( #262, #173 ) ;
#171 = EDGE_CURVE ( 'NONE', #218, #192, #1, .T. ) ;
#172 = CIRCLE ( 'NONE', #66, 12.44999999999999900 ) ;
#173 = ADVANCED_BREP_SHAPE_REPRESENTATION ( 'Web Model 11877_11886', ( #148, #100 ), #155 ) ;
#174 = CONICAL_SURFACE ( 'NONE', #106, 12.45000000000000300, 0.7853981633975003500 ) ;
#175 = ORIENTED_EDGE ( 'NONE', *, *, #142, .T. ) ;
#176 = VECTOR ( 'NONE', #202, 1000.000000000000000 ) ;
#177 = DIRECTION ( 'NONE',  ( 0.0000000000000000000, 0.0000000000000000000, 1.000000000000000000 ) ) ;
#178 = CARTESIAN_POINT ( 'NONE',  ( -0.9499999999999968500, 1.530808498934191500E-015, 12.50000000000000000 ) ) ;
#179 = APPROVAL_STATUS ( 'not_yet_approved' ) ;
#180 =( NAMED_UNIT ( * ) SI_UNIT ( $, .STERADIAN. ) SOLID_ANGLE_UNIT ( ) );
#181 = DIRECTION ( 'NONE',  ( 0.0000000000000000000, 0.0000000000000000000, 1.000000000000000000 ) ) ;
#182 = SECURITY_CLASSIFICATION ( '', '', #212 ) ;
#183 = DIRECTION ( 'NONE',  ( 0.0000000000000000000, 0.0000000000000000000, 1.000000000000000000 ) ) ;
#184 = LOCAL_TIME ( 13, 29, 29.00000000000000000, #79 ) ;
#185 = CIRCLE ( 'NONE', #7, 12.45000000000000300 ) ;
#186 = DIRECTION ( 'NONE',  ( -1.000000000000000000, -0.0000000000000000000, -0.0000000000000000000 ) ) ;
#187 = ADVANCED_FACE ( 'NONE', ( #133 ), #62, .T. ) ;
#188 = ORIENTED_EDGE ( 'NONE', *, *, #26, .T. ) ;
#189 = PERSON_AND_ORGANIZATION_ROLE ( 'creator' ) ;
#190 = ADVANCED_FACE ( 'NONE', ( #235 ), #243, .F. ) ;
#191 = APPROVAL_PERSON_ORGANIZATION ( #28, #134, #146 ) ;
#192 = VERTEX_POINT ( 'NONE', #140 ) ;
#193 = EDGE_CURVE ( 'NONE', #231, #147, #229, .T. ) ;
#194 = AXIS2_PLACEMENT_3D ( 'NONE', #130, #31, #52 ) ;
#195 = CC_DESIGN_DATE_AND_TIME_ASSIGNMENT ( #153, #251, ( #182 ) ) ;
#196 = DATE_AND_TIME ( #252, #39 ) ;
#197 = CARTESIAN_POINT ( 'NONE',  ( 0.9500000000000072800, 0.0000000000000000000, 12.50000000000000000 ) ) ;
#198 = ORIENTED_EDGE ( 'NONE', *, *, #268, .F. ) ;
#199 = LOCAL_TIME ( 13, 29, 29.00000000000000000, #42 ) ;
#200 = CC_DESIGN_PERSON_AND_ORGANIZATION_ASSIGNMENT ( #160, #144, ( #55 ) ) ;
#201 = DIRECTION ( 'NONE',  ( 0.7071067811865597900, 8.659560562354782500E-017, 0.7071067811865352500 ) ) ;
#202 = DIRECTION ( 'NONE',  ( -0.7071067811865107100, 8.659560562355384000E-017, -0.7071067811865843200 ) ) ;
#203 = CC_DESIGN_APPROVAL ( #210, ( #182 ) ) ;
#204 = DIRECTION ( 'NONE',  ( 1.000000000000000000, 0.0000000000000000000, 0.0000000000000000000 ) ) ;
#205 = CARTESIAN_POINT ( 'NONE',  ( 1.000000000000000000, 0.0000000000000000000, 12.50000000000000000 ) ) ;
#206 = CALENDAR_DATE ( 2019, 2, 1 ) ;
#207 = ORIENTED_EDGE ( 'NONE', *, *, #246, .T. ) ;
#208 = DIRECTION ( 'NONE',  ( 0.0000000000000000000, 0.0000000000000000000, -1.000000000000000000 ) ) ;
#209 = PERSON_AND_ORGANIZATION ( #162, #44 ) ;
#210 = APPROVAL ( #21, 'UNSPECIFIED' ) ;
#211 = FACE_OUTER_BOUND ( 'NONE', #119, .T. ) ;
#212 = SECURITY_CLASSIFICATION_LEVEL ( 'unclassified' ) ;
#213 = VERTEX_POINT ( 'NONE', #75 ) ;
#214 = AXIS2_PLACEMENT_3D ( 'NONE', #18, #20, #168 ) ;
#215 = DATE_AND_TIME ( #206, #258 ) ;
#216 = VECTOR ( 'NONE', #272, 1000.000000000000000 ) ;
#217 = EDGE_CURVE ( 'NONE', #213, #147, #101, .T. ) ;
#218 = VERTEX_POINT ( 'NONE', #136 ) ;
#219 = CYLINDRICAL_SURFACE ( 'NONE', #60, 12.50000000000000000 ) ;
#220 = EDGE_LOOP ( 'NONE', ( #104, #152 ) ) ;
#221 = LOCAL_TIME ( 13, 29, 29.00000000000000000, #59 ) ;
#222 = DIRECTION ( 'NONE',  ( 0.0000000000000000000, 0.0000000000000000000, 1.000000000000000000 ) ) ;
#223 = CARTESIAN_POINT ( 'NONE',  ( 1.000000000000000000, 1.530808498934191500E-015, -12.50000000000000000 ) ) ;
#224 = CIRCLE ( 'NONE', #214, 12.44999999999999900 ) ;
#225 = DIRECTION ( 'NONE',  ( 1.000000000000000000, -0.0000000000000000000, -0.0000000000000000000 ) ) ;
#226 = LINE ( 'NONE', #223, #143 ) ;
#227 = CARTESIAN_POINT ( 'NONE',  ( 0.9500000000000072800, 1.530808498934191500E-015, -12.50000000000000000 ) ) ;
#228 = CARTESIAN_POINT ( 'NONE',  ( 1.000000000000000000, 0.0000000000000000000, 0.0000000000000000000 ) ) ;
#229 = CIRCLE ( 'NONE', #68, 12.50000000000000000 ) ;
#230 = DATE_TIME_ROLE ( 'creation_date' ) ;
#231 = VERTEX_POINT ( 'NONE', #227 ) ;
#232 = ORIENTED_EDGE ( 'NONE', *, *, #246, .F. ) ;
#233 = EDGE_CURVE ( 'NONE', #218, #253, #224, .T. ) ;
#234 = AXIS2_PLACEMENT_3D ( 'NONE', #245, #76, #183 ) ;
#235 = FACE_OUTER_BOUND ( 'NONE', #94, .T. ) ;
#236 = PERSON_AND_ORGANIZATION ( #162, #44 ) ;
#237 = ORIENTED_EDGE ( 'NONE', *, *, #9, .T. ) ;
#238 = CARTESIAN_POINT ( 'NONE',  ( 0.9500000000000072800, 0.0000000000000000000, 0.0000000000000000000 ) ) ;
#239 = DIRECTION ( 'NONE',  ( -1.000000000000000000, -0.0000000000000000000, -0.0000000000000000000 ) ) ;
#240 = DIRECTION ( 'NONE',  ( 0.0000000000000000000, 0.0000000000000000000, -1.000000000000000000 ) ) ;
#241 = FACE_OUTER_BOUND ( 'NONE', #158, .T. ) ;
#242 = ORIENTED_EDGE ( 'NONE', *, *, #16, .F. ) ;
#243 = PLANE ( 'NONE',  #139 ) ;
#244 = CC_DESIGN_SECURITY_CLASSIFICATION ( #182, ( #55 ) ) ;
#245 = CARTESIAN_POINT ( 'NONE',  ( 1.000000000000000000, 0.0000000000000000000, 0.0000000000000000000 ) ) ;
#246 = EDGE_CURVE ( 'NONE', #253, #145, #65, .T. ) ;
#247 = CC_DESIGN_APPROVAL ( #126, ( #89 ) ) ;
#248 = EDGE_LOOP ( 'NONE', ( #188, #91, #237, #198 ) ) ;
#249 = CARTESIAN_POINT ( 'NONE',  ( 0.9500000000000072800, 0.0000000000000000000, 0.0000000000000000000 ) ) ;
#250 = MECHANICAL_CONTEXT ( 'NONE', #96, 'mechanical' ) ;
#251 = DATE_TIME_ROLE ( 'classification_date' ) ;
#252 = CALENDAR_DATE ( 2019, 2, 1 ) ;
#253 = VERTEX_POINT ( 'NONE', #266 ) ;
#254 = AXIS2_PLACEMENT_3D ( 'NONE', #228, #169, #181 ) ;
#255 = CYLINDRICAL_SURFACE ( 'NONE', #254, 12.50000000000000000 ) ;
#256 = ORIENTED_EDGE ( 'NONE', *, *, #142, .F. ) ;
#257 = EDGE_CURVE ( 'NONE', #253, #218, #172, .T. ) ;
#258 = LOCAL_TIME ( 13, 29, 29.00000000000000000, #49 ) ;
#259 = ORIENTED_EDGE ( 'NONE', *, *, #257, .T. ) ;
#260 = ORIENTED_EDGE ( 'NONE', *, *, #4, .F. ) ;
#261 = DIRECTION ( 'NONE',  ( 1.000000000000000000, -0.0000000000000000000, -0.0000000000000000000 ) ) ;
#262 = PRODUCT_DEFINITION_SHAPE ( 'NONE', 'NONE',  #89 ) ;
#263 = DIRECTION ( 'NONE',  ( -1.000000000000000000, -0.0000000000000000000, -0.0000000000000000000 ) ) ;
#264 = AXIS2_PLACEMENT_3D ( 'NONE', #238, #69, #72 ) ;
#265 = DIRECTION ( 'NONE',  ( -1.000000000000000000, -0.0000000000000000000, -0.0000000000000000000 ) ) ;
#266 = CARTESIAN_POINT ( 'NONE',  ( -1.000000000000000000, 0.0000000000000000000, -12.44999999999999900 ) ) ;
#267 = PERSON_AND_ORGANIZATION ( #162, #44 ) ;
#268 = EDGE_CURVE ( 'NONE', #147, #192, #274, .T. ) ;
#269 =( NAMED_UNIT ( * ) PLANE_ANGLE_UNIT ( ) SI_UNIT ( $, .RADIAN. ) );
#270 = CALENDAR_DATE ( 2019, 2, 1 ) ;
#271 = PRODUCT_RELATED_PRODUCT_CATEGORY ( 'detail', '', ( #132 ) ) ;
#272 = DIRECTION ( 'NONE',  ( 0.7071067811865597900, 0.0000000000000000000, -0.7071067811865352500 ) ) ;
#273 = APPLICATION_PROTOCOL_DEFINITION ( 'international standard', 'config_control_design', 1994, #117 ) ;
#274 = LINE ( 'NONE', #205, #80 ) ;
#275 = ADVANCED_FACE ( 'NONE', ( #211 ), #255, .T. ) ;
ENDSEC;
END-ISO-10303-21;
