ISO-10303-21;
HEADER;
FILE_DESCRIPTION (( 'STEP AP203' ),
    '1' );
FILE_NAME ('TTN206029-E0W.STEP',
    '2020-01-17T20:18:12',
    ( '' ),
    ( '' ),
    'SwSTEP 2.0',
    'SolidWorks 2018',
    '' );
FILE_SCHEMA (( 'CONFIG_CONTROL_DESIGN' ));
ENDSEC;

DATA;
#1 = DIRECTION ( 'NONE',  ( -0.0000000000000000000, 1.224646799147353207E-16, -1.000000000000000000 ) ) ;
#2 = DIRECTION ( 'NONE',  ( 0.0000000000000000000, -1.000000000000000000, -1.224646799147353207E-16 ) ) ;
#3 = EDGE_LOOP ( 'NONE', ( #228, #294, #163, #259 ) ) ;
#4 = CARTESIAN_POINT ( 'NONE',  ( 0.0000000000000000000, -6.490028160429946209E-17, -0.9425489835152018880 ) ) ;
#5 = AXIS2_PLACEMENT_3D ( 'NONE', #140, #297, #271 ) ;
#6 = DESIGN_CONTEXT ( 'detailed design', #34, 'design' ) ;
#7 = SHAPE_DEFINITION_REPRESENTATION ( #15, #246 ) ;
#8 = CC_DESIGN_SECURITY_CLASSIFICATION ( #143, ( #47 ) ) ;
#9 = DIRECTION ( 'NONE',  ( 0.0000000000000000000, 1.000000000000000000, 1.195183497228115281E-16 ) ) ;
#10 = CARTESIAN_POINT ( 'NONE',  ( 0.0000000000000000000, 12.69999999999999929, 0.8550000000000035350 ) ) ;
#11 = APPLICATION_PROTOCOL_DEFINITION ( 'international standard', 'config_control_design', 1994, #34 ) ;
#12 = ORIENTED_EDGE ( 'NONE', *, *, #108, .T. ) ;
#13 = APPROVAL ( #152, 'UNSPECIFIED' ) ;
#14 = LOCAL_TIME ( 15, 18, 12.00000000000000000, #150 ) ;
#15 = PRODUCT_DEFINITION_SHAPE ( 'NONE', 'NONE',  #75 ) ;
#16 = PRODUCT_RELATED_PRODUCT_CATEGORY ( 'detail', '', ( #252 ) ) ;
#17 = CIRCLE ( 'NONE', #205, 12.69999999999999929 ) ;
#18 = DIRECTION ( 'NONE',  ( 8.659560562354947649E-17, 0.7071067811865485719, 0.7071067811865465735 ) ) ;
#19 = AXIS2_PLACEMENT_3D ( 'NONE', #170, #53, #173 ) ;
#20 = DATE_AND_TIME ( #257, #265 ) ;
#21 = ORIENTED_EDGE ( 'NONE', *, *, #290, .T. ) ;
#22 = CONICAL_SURFACE ( 'NONE', #264, 12.69999999999999929, 0.7853981633974526089 ) ;
#23 = CARTESIAN_POINT ( 'NONE',  ( 0.0000000000000000000, -2.850365425015467338E-16, 0.8550000000000019806 ) ) ;
#24 = CC_DESIGN_DATE_AND_TIME_ASSIGNMENT ( #121, #48, ( #143 ) ) ;
#25 = ORIENTED_EDGE ( 'NONE', *, *, #109, .T. ) ;
#26 = PERSON_AND_ORGANIZATION_ROLE ( 'creator' ) ;
#27 =( NAMED_UNIT ( * ) SI_UNIT ( $, .STERADIAN. ) SOLID_ANGLE_UNIT ( ) );
#28 = CALENDAR_DATE ( 2020, 17, 1 ) ;
#29 = VECTOR ( 'NONE', #87, 1000.000000000000000 ) ;
#30 = EDGE_CURVE ( 'NONE', #125, #57, #177, .T. ) ;
#31 = DIRECTION ( 'NONE',  ( 1.000000000000000000, 0.0000000000000000000, -0.0000000000000000000 ) ) ;
#32 = DIRECTION ( 'NONE',  ( 0.0000000000000000000, -1.000000000000000000, -1.214306433183764966E-16 ) ) ;
#33 = MANIFOLD_SOLID_BREP ( 'TTN206045-1-solid1', #112 ) ;
#34 = APPLICATION_CONTEXT ( 'configuration controlled 3d designs of mechanical parts and assemblies' ) ;
#35 = FACE_OUTER_BOUND ( 'NONE', #3, .T. ) ;
#36 = DATE_AND_TIME ( #242, #104 ) ;
#37 = ORIENTED_EDGE ( 'NONE', *, *, #238, .T. ) ;
#38 = AXIS2_PLACEMENT_3D ( 'NONE', #91, #258, #2 ) ;
#39 = CONICAL_SURFACE ( 'NONE', #256, 12.69999999999999929, 0.7853981633974526089 ) ;
#40 = PERSON_AND_ORGANIZATION ( #63, #58 ) ;
#41 = CIRCLE ( 'NONE', #274, 12.69999999999999929 ) ;
#42 = EDGE_LOOP ( 'NONE', ( #86, #12, #117, #65 ) ) ;
#43 = DIRECTION ( 'NONE',  ( 0.0000000000000000000, -1.224646799147353207E-16, 1.000000000000000000 ) ) ;
#44 = DIRECTION ( 'NONE',  ( -0.0000000000000000000, 1.224646799147353207E-16, -1.000000000000000000 ) ) ;
#45 = DIRECTION ( 'NONE',  ( -0.0000000000000000000, 1.224646799147353207E-16, -1.000000000000000000 ) ) ;
#46 = CC_DESIGN_PERSON_AND_ORGANIZATION_ASSIGNMENT ( #203, #54, ( #252 ) ) ;
#47 = PRODUCT_DEFINITION_FORMATION_WITH_SPECIFIED_SOURCE ( 'ANY', '', #252, .NOT_KNOWN. ) ;
#48 = DATE_TIME_ROLE ( 'classification_date' ) ;
#49 = CIRCLE ( 'NONE', #209, 12.50000000000000000 ) ;
#50 = ORIENTED_EDGE ( 'NONE', *, *, #147, .F. ) ;
#51 = VERTEX_POINT ( 'NONE', #159 ) ;
#52 = CARTESIAN_POINT ( 'NONE',  ( 0.0000000000000000000, -1.287541597134563256E-13, 700.2749999999999773 ) ) ;
#53 = DIRECTION ( 'NONE',  ( 0.0000000000000000000, -1.224646799147353207E-16, 1.000000000000000000 ) ) ;
#54 = PERSON_AND_ORGANIZATION_ROLE ( 'design_owner' ) ;
#55 = LINE ( 'NONE', #248, #29 ) ;
#56 = UNCERTAINTY_MEASURE_WITH_UNIT (LENGTH_MEASURE( 1.000000000000000082E-05 ), #151, 'distance_accuracy_value', 'NONE');
#57 = VERTEX_POINT ( 'NONE', #85 ) ;
#58 = ORGANIZATION ( 'UNSPECIFIED', 'UNSPECIFIED', '' ) ;
#59 = LINE ( 'NONE', #113, #165 ) ;
#60 = ORIENTED_EDGE ( 'NONE', *, *, #247, .T. ) ;
#61 = AXIS2_PLACEMENT_3D ( 'NONE', #74, #31, #260 ) ;
#62 = CALENDAR_DATE ( 2020, 17, 1 ) ;
#63 = PERSON ( 'UNSPECIFIED', 'UNSPECIFIED', 'UNSPECIFIED', ('UNSPECIFIED'), ('UNSPECIFIED'), ('UNSPECIFIED') ) ;
#64 = DIRECTION ( 'NONE',  ( 8.659560562354969836E-17, -0.7071067811865504593, -0.7071067811865445751 ) ) ;
#65 = ORIENTED_EDGE ( 'NONE', *, *, #197, .F. ) ;
#66 = CIRCLE ( 'NONE', #19, 12.50000000000000000 ) ;
#67 = DIRECTION ( 'NONE',  ( -0.0000000000000000000, 1.224646799147353207E-16, -1.000000000000000000 ) ) ;
#68 = DIRECTION ( 'NONE',  ( 0.0000000000000000000, -1.000000000000000000, -1.208642382658147351E-16 ) ) ;
#69 = EDGE_CURVE ( 'NONE', #270, #57, #55, .T. ) ;
#70 = ORIENTED_EDGE ( 'NONE', *, *, #131, .T. ) ;
#71 = DIRECTION ( 'NONE',  ( 0.0000000000000000000, 0.7071067811865506814, -0.7071067811865443531 ) ) ;
#72 = APPROVAL_PERSON_ORGANIZATION ( #171, #89, #199 ) ;
#73 = CARTESIAN_POINT ( 'NONE',  ( 0.0000000000000000000, -6.490028160429946209E-17, -0.9425489835152018880 ) ) ;
#74 = CARTESIAN_POINT ( 'NONE',  ( 0.0000000000000000000, -1.287541597134563256E-13, 700.2749999999999773 ) ) ;
#75 = PRODUCT_DEFINITION ( 'UNKNOWN', '', #47, #6 ) ;
#76 = CARTESIAN_POINT ( 'NONE',  ( 0.0000000000000000000, -3.095294784844934479E-16, 1.054999999999999050 ) ) ;
#77 = LINE ( 'NONE', #184, #276 ) ;
#78 = APPROVAL_STATUS ( 'not_yet_approved' ) ;
#79 = DIRECTION ( 'NONE',  ( -1.224646799147353207E-16, 1.000000000000000000, 0.0000000000000000000 ) ) ;
#80 = AXIS2_PLACEMENT_3D ( 'NONE', #127, #288, #217 ) ;
#81 = DATE_AND_TIME ( #195, #218 ) ;
#82 = VECTOR ( 'NONE', #18, 1000.000000000000000 ) ;
#83 = EDGE_LOOP ( 'NONE', ( #99, #212, #111, #187 ) ) ;
#84 = LOCAL_TIME ( 15, 18, 12.00000000000000000, #202 ) ;
#85 = CARTESIAN_POINT ( 'NONE',  ( 0.0000000000000000000, 12.69999999999999929, -0.8011276272778911078 ) ) ;
#86 = ORIENTED_EDGE ( 'NONE', *, *, #290, .F. ) ;
#87 = DIRECTION ( 'NONE',  ( -0.0000000000000000000, 1.224646799147353207E-16, -1.000000000000000000 ) ) ;
#88 = APPROVAL_DATE_TIME ( #36, #13 ) ;
#89 = APPROVAL ( #78, 'UNSPECIFIED' ) ;
#90 = ORIENTED_EDGE ( 'NONE', *, *, #30, .T. ) ;
#91 = CARTESIAN_POINT ( 'NONE',  ( 0.0000000000000000000, -3.095294784844934972E-16, 1.054999999999999050 ) ) ;
#92 = DIRECTION ( 'NONE',  ( -0.0000000000000000000, 1.224646799147353207E-16, -1.000000000000000000 ) ) ;
#93 = PLANE ( 'NONE',  #38 ) ;
#94 = EDGE_LOOP ( 'NONE', ( #136, #216, #239, #101 ) ) ;
#95 = DIRECTION ( 'NONE',  ( 0.0000000000000000000, 1.000000000000000000, 1.195183497228115281E-16 ) ) ;
#96 = AXIS2_PLACEMENT_3D ( 'NONE', #4, #67, #231 ) ;
#97 = DIRECTION ( 'NONE',  ( 1.000000000000000000, 1.224646799147353207E-16, 1.499759782661857608E-32 ) ) ;
#98 = APPROVAL_STATUS ( 'not_yet_approved' ) ;
#99 = ORIENTED_EDGE ( 'NONE', *, *, #141, .T. ) ;
#100 = APPLICATION_PROTOCOL_DEFINITION ( 'international standard', 'config_control_design', 1994, #175 ) ;
#101 = ORIENTED_EDGE ( 'NONE', *, *, #153, .F. ) ;
#102 = PERSON_AND_ORGANIZATION_ROLE ( 'design_supplier' ) ;
#103 = MECHANICAL_CONTEXT ( 'NONE', #175, 'mechanical' ) ;
#104 = LOCAL_TIME ( 15, 18, 12.00000000000000000, #145 ) ;
#105 = VERTEX_POINT ( 'NONE', #224 ) ;
#106 = CC_DESIGN_APPROVAL ( #89, ( #75 ) ) ;
#107 = DIRECTION ( 'NONE',  ( 0.0000000000000000000, 1.000000000000000000, 1.583025144547012742E-16 ) ) ;
#108 = EDGE_CURVE ( 'NONE', #200, #174, #77, .T. ) ;
#109 = EDGE_CURVE ( 'NONE', #125, #105, #293, .T. ) ;
#110 = DIRECTION ( 'NONE',  ( 1.000000000000000000, 0.0000000000000000000, -0.0000000000000000000 ) ) ;
#111 = ORIENTED_EDGE ( 'NONE', *, *, #133, .F. ) ;
#112 = CLOSED_SHELL ( 'NONE', ( #281, #119, #232, #278, #116, #208, #193, #244, #144 ) ) ;
#113 = CARTESIAN_POINT ( 'NONE',  ( 0.0000000000000000000, 12.69999999999999929, 0.8550000000000035350 ) ) ;
#114 = CIRCLE ( 'NONE', #96, 12.55857864376269006 ) ;
#115 = DIRECTION ( 'NONE',  ( 0.0000000000000000000, 1.000000000000000000, 1.195183497228115281E-16 ) ) ;
#116 = ADVANCED_FACE ( 'NONE', ( #182 ), #214, .T. ) ;
#117 = ORIENTED_EDGE ( 'NONE', *, *, #141, .F. ) ;
#118 = CARTESIAN_POINT ( 'NONE',  ( 0.0000000000000000000, 12.50000000000000000, 1.055000000000000604 ) ) ;
#119 = ADVANCED_FACE ( 'NONE', ( #190 ), #210, .T. ) ;
#120 = DIRECTION ( 'NONE',  ( -0.0000000000000000000, 1.224646799147353207E-16, -1.000000000000000000 ) ) ;
#121 = DATE_AND_TIME ( #62, #14 ) ;
#122 = CARTESIAN_POINT ( 'NONE',  ( 0.0000000000000000000, -8.221940272900928343E-17, -0.8011276272778926621 ) ) ;
#123 = CIRCLE ( 'NONE', #137, 12.55857864376269006 ) ;
#124 = DIRECTION ( 'NONE',  ( 0.0000000000000000000, -1.224646799147353207E-16, 1.000000000000000000 ) ) ;
#125 = VERTEX_POINT ( 'NONE', #280 ) ;
#126 = CC_DESIGN_PERSON_AND_ORGANIZATION_ASSIGNMENT ( #226, #243, ( #75 ) ) ;
#127 = CARTESIAN_POINT ( 'NONE',  ( 0.0000000000000000000, 0.0000000000000000000, 0.0000000000000000000 ) ) ;
#128 = VECTOR ( 'NONE', #286, 1000.000000000000000 ) ;
#129 = SECURITY_CLASSIFICATION_LEVEL ( 'unclassified' ) ;
#130 = VERTEX_POINT ( 'NONE', #194 ) ;
#131 = EDGE_CURVE ( 'NONE', #125, #130, #114, .T. ) ;
#132 = APPROVAL_DATE_TIME ( #81, #154 ) ;
#133 = EDGE_CURVE ( 'NONE', #57, #51, #172, .T. ) ;
#134 = PERSON_AND_ORGANIZATION ( #63, #58 ) ;
#135 = FACE_OUTER_BOUND ( 'NONE', #300, .T. ) ;
#136 = ORIENTED_EDGE ( 'NONE', *, *, #149, .F. ) ;
#137 = AXIS2_PLACEMENT_3D ( 'NONE', #73, #44, #211 ) ;
#138 = CC_DESIGN_PERSON_AND_ORGANIZATION_ASSIGNMENT ( #139, #262, ( #143 ) ) ;
#139 = PERSON_AND_ORGANIZATION ( #63, #58 ) ;
#140 = CARTESIAN_POINT ( 'NONE',  ( 0.0000000000000000000, -6.490028160429946209E-17, -0.9425489835152018880 ) ) ;
#141 = EDGE_CURVE ( 'NONE', #270, #174, #41, .T. ) ;
#142 = EDGE_LOOP ( 'NONE', ( #180, #179, #155, #50 ) ) ;
#143 = SECURITY_CLASSIFICATION ( '', '', #129 ) ;
#144 = ADVANCED_FACE ( 'NONE', ( #298 ), #22, .T. ) ;
#145 = COORDINATED_UNIVERSAL_TIME_OFFSET ( 5, 0, .BEHIND. ) ;
#146 = CARTESIAN_POINT ( 'NONE',  ( 1.555301434917138433E-15, -12.69999999999999929, -1.055000000000001492 ) ) ;
#147 = EDGE_CURVE ( 'NONE', #174, #270, #296, .T. ) ;
#148 = VERTEX_POINT ( 'NONE', #118 ) ;
#149 = EDGE_CURVE ( 'NONE', #174, #51, #251, .T. ) ;
#150 = COORDINATED_UNIVERSAL_TIME_OFFSET ( 5, 0, .BEHIND. ) ;
#151 =( LENGTH_UNIT ( ) NAMED_UNIT ( * ) SI_UNIT ( .MILLI., .METRE. ) );
#152 = APPROVAL_STATUS ( 'not_yet_approved' ) ;
#153 = EDGE_CURVE ( 'NONE', #51, #57, #17, .T. ) ;
#154 = APPROVAL ( #98, 'UNSPECIFIED' ) ;
#155 = ORIENTED_EDGE ( 'NONE', *, *, #197, .T. ) ;
#156 = VECTOR ( 'NONE', #120, 1000.000000000000000 ) ;
#157 = ORIENTED_EDGE ( 'NONE', *, *, #131, .F. ) ;
#158 = CARTESIAN_POINT ( 'NONE',  ( 0.0000000000000000000, -1.287541597134563256E-13, 700.2749999999999773 ) ) ;
#159 = CARTESIAN_POINT ( 'NONE',  ( 1.555301434917138433E-15, -12.69999999999999929, -0.8011276272778941054 ) ) ;
#160 = CC_DESIGN_PERSON_AND_ORGANIZATION_ASSIGNMENT ( #235, #26, ( #47 ) ) ;
#161 = AXIS2_PLACEMENT_3D ( 'NONE', #273, #110, #107 ) ;
#162 = EDGE_LOOP ( 'NONE', ( #157, #90, #254, #221 ) ) ;
#163 = ORIENTED_EDGE ( 'NONE', *, *, #268, .T. ) ;
#164 = DIRECTION ( 'NONE',  ( 0.0000000000000000000, 1.000000000000000000, 1.195183497228115281E-16 ) ) ;
#165 = VECTOR ( 'NONE', #71, 1000.000000000000000 ) ;
#166 = DIRECTION ( 'NONE',  ( 0.0000000000000000000, -1.000000000000000000, -1.195183497228115281E-16 ) ) ;
#167 = EDGE_CURVE ( 'NONE', #130, #125, #123, .T. ) ;
#168 = DIRECTION ( 'NONE',  ( -0.0000000000000000000, 1.224646799147352714E-16, -1.000000000000000000 ) ) ;
#169 = CARTESIAN_POINT ( 'NONE',  ( 0.0000000000000000000, -2.850365425015467338E-16, 0.8550000000000019806 ) ) ;
#170 = CARTESIAN_POINT ( 'NONE',  ( 0.0000000000000000000, -3.095294784844934479E-16, 1.054999999999999050 ) ) ;
#171 = PERSON_AND_ORGANIZATION ( #63, #58 ) ;
#172 = CIRCLE ( 'NONE', #178, 12.69999999999999929 ) ;
#173 = DIRECTION ( 'NONE',  ( 0.0000000000000000000, -1.000000000000000000, -1.214306433183764966E-16 ) ) ;
#174 = VERTEX_POINT ( 'NONE', #301 ) ;
#175 = APPLICATION_CONTEXT ( 'configuration controlled 3d designs of mechanical parts and assemblies' ) ;
#176 = APPROVAL_ROLE ( '' ) ;
#177 = LINE ( 'NONE', #186, #82 ) ;
#178 = AXIS2_PLACEMENT_3D ( 'NONE', #234, #192, #275 ) ;
#179 = ORIENTED_EDGE ( 'NONE', *, *, #238, .F. ) ;
#180 = ORIENTED_EDGE ( 'NONE', *, *, #108, .F. ) ;
#181 = DATE_AND_TIME ( #28, #84 ) ;
#182 = FACE_OUTER_BOUND ( 'NONE', #183, .T. ) ;
#183 = EDGE_LOOP ( 'NONE', ( #279, #222, #25 ) ) ;
#184 = CARTESIAN_POINT ( 'NONE',  ( 1.555301434917138433E-15, -12.69999999999999929, 0.8550000000000005373 ) ) ;
#185 = CONICAL_SURFACE ( 'NONE', #285, 12.55857864376269006, 0.7853981633974498333 ) ;
#186 = CARTESIAN_POINT ( 'NONE',  ( 1.537982313792428661E-15, 12.55857864376269006, -0.9425489835152003337 ) ) ;
#187 = ORIENTED_EDGE ( 'NONE', *, *, #69, .F. ) ;
#188 = EDGE_LOOP ( 'NONE', ( #70, #60, #287 ) ) ;
#189 = DIRECTION ( 'NONE',  ( -0.0000000000000000000, 1.224646799147352714E-16, -1.000000000000000000 ) ) ;
#190 = FACE_OUTER_BOUND ( 'NONE', #162, .T. ) ;
#191 = CARTESIAN_POINT ( 'NONE',  ( 0.0000000000000000000, -6.490028160429946209E-17, -0.9425489835152018880 ) ) ;
#192 = DIRECTION ( 'NONE',  ( -0.0000000000000000000, 1.224646799147353207E-16, -1.000000000000000000 ) ) ;
#193 = ADVANCED_FACE ( 'NONE', ( #267 ), #266, .T. ) ;
#194 = CARTESIAN_POINT ( 'NONE',  ( 1.537982313792199299E-15, -12.55857864376085864, -0.9425489835152023321 ) ) ;
#195 = CALENDAR_DATE ( 2020, 17, 1 ) ;
#196 = DIRECTION ( 'NONE',  ( 0.0000000000000000000, -1.000000000000000000, -1.195183497228115281E-16 ) ) ;
#197 = EDGE_CURVE ( 'NONE', #148, #270, #59, .T. ) ;
#198 = CYLINDRICAL_SURFACE ( 'NONE', #250, 12.69999999999999929 ) ;
#199 = APPROVAL_ROLE ( '' ) ;
#200 = VERTEX_POINT ( 'NONE', #229 ) ;
#201 = AXIS2_PLACEMENT_3D ( 'NONE', #158, #204, #225 ) ;
#202 = COORDINATED_UNIVERSAL_TIME_OFFSET ( 5, 0, .BEHIND. ) ;
#203 = PERSON_AND_ORGANIZATION ( #63, #58 ) ;
#204 = DIRECTION ( 'NONE',  ( -1.000000000000000000, 0.0000000000000000000, 0.0000000000000000000 ) ) ;
#205 = AXIS2_PLACEMENT_3D ( 'NONE', #122, #92, #207 ) ;
#206 = APPROVAL_DATE_TIME ( #20, #89 ) ;
#207 = DIRECTION ( 'NONE',  ( 0.0000000000000000000, 1.000000000000000000, 1.195183497228115281E-16 ) ) ;
#208 = ADVANCED_FACE ( 'NONE', ( #135 ), #93, .T. ) ;
#209 = AXIS2_PLACEMENT_3D ( 'NONE', #76, #124, #32 ) ;
#210 = CONICAL_SURFACE ( 'NONE', #5, 12.55857864376269006, 0.7853981633974498333 ) ;
#211 = DIRECTION ( 'NONE',  ( 0.0000000000000000000, 1.000000000000000000, 1.208642382658147351E-16 ) ) ;
#212 = ORIENTED_EDGE ( 'NONE', *, *, #149, .T. ) ;
#213 = CARTESIAN_POINT ( 'NONE',  ( 0.0000000000000000000, -2.850365425015467338E-16, 0.8550000000000019806 ) ) ;
#214 = SPHERICAL_SURFACE ( 'NONE', #161, 701.3300000000000409 ) ;
#215 =( NAMED_UNIT ( * ) PLANE_ANGLE_UNIT ( ) SI_UNIT ( $, .RADIAN. ) );
#216 = ORIENTED_EDGE ( 'NONE', *, *, #147, .T. ) ;
#217 = DIRECTION ( 'NONE',  ( 1.000000000000000000, 0.0000000000000000000, 0.0000000000000000000 ) ) ;
#218 = LOCAL_TIME ( 15, 18, 12.00000000000000000, #249 ) ;
#219 = FACE_OUTER_BOUND ( 'NONE', #42, .T. ) ;
#220 = AXIS2_PLACEMENT_3D ( 'NONE', #255, #45, #115 ) ;
#221 = ORIENTED_EDGE ( 'NONE', *, *, #268, .F. ) ;
#222 = ORIENTED_EDGE ( 'NONE', *, *, #167, .T. ) ;
#223 =( GEOMETRIC_REPRESENTATION_CONTEXT ( 3 ) GLOBAL_UNCERTAINTY_ASSIGNED_CONTEXT ( ( #56 ) ) GLOBAL_UNIT_ASSIGNED_CONTEXT ( ( #151, #215, #27 ) ) REPRESENTATION_CONTEXT ( 'NONE', 'WORKASPACE' ) );
#224 = CARTESIAN_POINT ( 'NONE',  ( 0.0000000000000000000, 7.807123344565083558E-17, -1.055000000000028137 ) ) ;
#225 = DIRECTION ( 'NONE',  ( 0.0000000000000000000, 0.0000000000000000000, 1.000000000000000000 ) ) ;
#226 = PERSON_AND_ORGANIZATION ( #63, #58 ) ;
#227 = FACE_OUTER_BOUND ( 'NONE', #83, .T. ) ;
#228 = ORIENTED_EDGE ( 'NONE', *, *, #30, .F. ) ;
#229 = CARTESIAN_POINT ( 'NONE',  ( 1.543054966925665076E-15, -12.50000000000000000, 1.054999999999997495 ) ) ;
#230 = CIRCLE ( 'NONE', #245, 701.3300000000000409 ) ;
#231 = DIRECTION ( 'NONE',  ( 0.0000000000000000000, 1.000000000000000000, 1.208642382658147351E-16 ) ) ;
#232 = ADVANCED_FACE ( 'NONE', ( #227 ), #198, .T. ) ;
#233 = CARTESIAN_POINT ( 'NONE',  ( 0.0000000000000000000, -5.112900386440203726E-17, -1.054999999999999938 ) ) ;
#234 = CARTESIAN_POINT ( 'NONE',  ( 0.0000000000000000000, -8.221940272900928343E-17, -0.8011276272778926621 ) ) ;
#235 = PERSON_AND_ORGANIZATION ( #63, #58 ) ;
#236 = FACE_OUTER_BOUND ( 'NONE', #188, .T. ) ;
#237 = CC_DESIGN_APPROVAL ( #154, ( #143 ) ) ;
#238 = EDGE_CURVE ( 'NONE', #148, #200, #66, .T. ) ;
#239 = ORIENTED_EDGE ( 'NONE', *, *, #69, .T. ) ;
#240 = APPROVAL_ROLE ( '' ) ;
#241 = CARTESIAN_POINT ( 'NONE',  ( 0.0000000000000000000, -12.55857864376269006, -0.9425489835152034424 ) ) ;
#242 = CALENDAR_DATE ( 2020, 17, 1 ) ;
#243 = PERSON_AND_ORGANIZATION_ROLE ( 'creator' ) ;
#244 = ADVANCED_FACE ( 'NONE', ( #35 ), #185, .T. ) ;
#245 = AXIS2_PLACEMENT_3D ( 'NONE', #52, #97, #79 ) ;
#246 = ADVANCED_BREP_SHAPE_REPRESENTATION ( 'TTN206029-E0W', ( #33, #80 ), #223 ) ;
#247 = EDGE_CURVE ( 'NONE', #130, #105, #230, .T. ) ;
#248 = CARTESIAN_POINT ( 'NONE',  ( 0.0000000000000000000, 12.69999999999999929, -1.054999999999998384 ) ) ;
#249 = COORDINATED_UNIVERSAL_TIME_OFFSET ( 5, 0, .BEHIND. ) ;
#250 = AXIS2_PLACEMENT_3D ( 'NONE', #233, #1, #164 ) ;
#251 = LINE ( 'NONE', #146, #156 ) ;
#252 = PRODUCT ( 'TTN206029-E0W', 'TTN206029-E0W', '', ( #103 ) ) ;
#253 = CARTESIAN_POINT ( 'NONE',  ( 0.0000000000000000000, -2.850365425015467338E-16, 0.8550000000000019806 ) ) ;
#254 = ORIENTED_EDGE ( 'NONE', *, *, #133, .T. ) ;
#255 = CARTESIAN_POINT ( 'NONE',  ( 0.0000000000000000000, -5.112900386440203726E-17, -1.054999999999999938 ) ) ;
#256 = AXIS2_PLACEMENT_3D ( 'NONE', #213, #283, #9 ) ;
#257 = CALENDAR_DATE ( 2020, 17, 1 ) ;
#258 = DIRECTION ( 'NONE',  ( 0.0000000000000000000, -1.224646799147353207E-16, 1.000000000000000000 ) ) ;
#259 = ORIENTED_EDGE ( 'NONE', *, *, #153, .T. ) ;
#260 = DIRECTION ( 'NONE',  ( 0.0000000000000000000, 1.000000000000000000, 1.583025144547012742E-16 ) ) ;
#261 = LINE ( 'NONE', #241, #128 ) ;
#262 = PERSON_AND_ORGANIZATION_ROLE ( 'classification_officer' ) ;
#263 = PERSON_AND_ORGANIZATION ( #63, #58 ) ;
#264 = AXIS2_PLACEMENT_3D ( 'NONE', #169, #277, #95 ) ;
#265 = LOCAL_TIME ( 15, 18, 12.00000000000000000, #292 ) ;
#266 = CYLINDRICAL_SURFACE ( 'NONE', #220, 12.69999999999999929 ) ;
#267 = FACE_OUTER_BOUND ( 'NONE', #94, .T. ) ;
#268 = EDGE_CURVE ( 'NONE', #130, #51, #261, .T. ) ;
#269 = CC_DESIGN_DATE_AND_TIME_ASSIGNMENT ( #181, #289, ( #75 ) ) ;
#270 = VERTEX_POINT ( 'NONE', #10 ) ;
#271 = DIRECTION ( 'NONE',  ( 0.0000000000000000000, -1.000000000000000000, -1.208642382658147351E-16 ) ) ;
#272 = APPROVAL_PERSON_ORGANIZATION ( #263, #13, #240 ) ;
#273 = CARTESIAN_POINT ( 'NONE',  ( 0.0000000000000000000, -1.287541597134563256E-13, 700.2749999999999773 ) ) ;
#274 = AXIS2_PLACEMENT_3D ( 'NONE', #253, #168, #166 ) ;
#275 = DIRECTION ( 'NONE',  ( 0.0000000000000000000, 1.000000000000000000, 1.195183497228115281E-16 ) ) ;
#276 = VECTOR ( 'NONE', #64, 1000.000000000000000 ) ;
#277 = DIRECTION ( 'NONE',  ( -0.0000000000000000000, 1.224646799147352714E-16, -1.000000000000000000 ) ) ;
#278 = ADVANCED_FACE ( 'NONE', ( #236 ), #284, .T. ) ;
#279 = ORIENTED_EDGE ( 'NONE', *, *, #247, .F. ) ;
#280 = CARTESIAN_POINT ( 'NONE',  ( 0.0000000000000000000, 12.55857864376081601, -0.9425489835152007778 ) ) ;
#281 = ADVANCED_FACE ( 'NONE', ( #219 ), #39, .T. ) ;
#282 = APPROVAL_PERSON_ORGANIZATION ( #134, #154, #176 ) ;
#283 = DIRECTION ( 'NONE',  ( -0.0000000000000000000, 1.224646799147352714E-16, -1.000000000000000000 ) ) ;
#284 = SPHERICAL_SURFACE ( 'NONE', #61, 701.3300000000000409 ) ;
#285 = AXIS2_PLACEMENT_3D ( 'NONE', #191, #43, #68 ) ;
#286 = DIRECTION ( 'NONE',  ( 0.0000000000000000000, -0.7071067811865487940, 0.7071067811865463515 ) ) ;
#287 = ORIENTED_EDGE ( 'NONE', *, *, #109, .F. ) ;
#288 = DIRECTION ( 'NONE',  ( 0.0000000000000000000, 0.0000000000000000000, 1.000000000000000000 ) ) ;
#289 = DATE_TIME_ROLE ( 'creation_date' ) ;
#290 = EDGE_CURVE ( 'NONE', #200, #148, #49, .T. ) ;
#291 = CC_DESIGN_APPROVAL ( #13, ( #47 ) ) ;
#292 = COORDINATED_UNIVERSAL_TIME_OFFSET ( 5, 0, .BEHIND. ) ;
#293 = CIRCLE ( 'NONE', #201, 701.3300000000000409 ) ;
#294 = ORIENTED_EDGE ( 'NONE', *, *, #167, .F. ) ;
#295 = AXIS2_PLACEMENT_3D ( 'NONE', #23, #189, #196 ) ;
#296 = CIRCLE ( 'NONE', #295, 12.69999999999999929 ) ;
#297 = DIRECTION ( 'NONE',  ( 0.0000000000000000000, -1.224646799147353207E-16, 1.000000000000000000 ) ) ;
#298 = FACE_OUTER_BOUND ( 'NONE', #142, .T. ) ;
#299 = CC_DESIGN_PERSON_AND_ORGANIZATION_ASSIGNMENT ( #40, #102, ( #47 ) ) ;
#300 = EDGE_LOOP ( 'NONE', ( #37, #21 ) ) ;
#301 = CARTESIAN_POINT ( 'NONE',  ( 1.555301434917138433E-15, -12.69999999999999929, 0.8550000000000005373 ) ) ;
ENDSEC;
END-ISO-10303-21;
