ISO-10303-21;
HEADER;
FILE_DESCRIPTION (( 'STEP AP203' ),
    '1' );
FILE_NAME ('20141-E0W.STEP',
    '2018-06-20T14:21:03',
    ( 'admin' ),
    ( '' ),
    'SwSTEP 2.0',
    'SolidWorks 2016',
    '' );
FILE_SCHEMA (( 'CONFIG_CONTROL_DESIGN' ));
ENDSEC;

DATA;
#1 = DIRECTION ( 'NONE',  ( 0.0000000000000000000, 1.000000000000000000, 2.820688578824076000E-016 ) ) ;
#2 = ORIENTED_EDGE ( 'NONE', *, *, #51, .F. ) ;
#3 = DIRECTION ( 'NONE',  ( 0.0000000000000000000, -3.061515884555943600E-016, 1.000000000000000000 ) ) ;
#4 = VERTEX_POINT ( 'NONE', #209 ) ;
#5 = DIRECTION ( 'NONE',  ( 0.0000000000000000000, -3.061515884555943600E-016, 1.000000000000000000 ) ) ;
#6 = CARTESIAN_POINT ( 'NONE',  ( 0.0000000000000000000, -1.617045612193486100E-017, 0.08423280678050090700 ) ) ;
#7 =( NAMED_UNIT ( * ) PLANE_ANGLE_UNIT ( ) SI_UNIT ( $, .RADIAN. ) );
#8 = DIRECTION ( 'NONE',  ( -0.0000000000000000000, 3.061515884555943100E-016, -1.000000000000000000 ) ) ;
#9 = APPROVAL_STATUS ( 'not_yet_approved' ) ;
#10 = CARTESIAN_POINT ( 'NONE',  ( 0.0000000000000000000, 4.138002720715591300E-017, -0.1037475451079497800 ) ) ;
#11 = EDGE_CURVE ( 'NONE', #140, #224, #85, .T. ) ;
#12 = CARTESIAN_POINT ( 'NONE',  ( 0.0000000000000000000, -2.033241896971980500E-017, 0.2820792265455934800 ) ) ;
#13 = VERTEX_POINT ( 'NONE', #49 ) ;
#14 = CC_DESIGN_PERSON_AND_ORGANIZATION_ASSIGNMENT ( #280, #27, ( #241 ) ) ;
#15 = ORIENTED_EDGE ( 'NONE', *, *, #269, .F. ) ;
#16 = EDGE_LOOP ( 'NONE', ( #22, #161, #198 ) ) ;
#17 = LOCAL_TIME ( 10, 21, 3.000000000000000000, #73 ) ;
#18 = VERTEX_POINT ( 'NONE', #23 ) ;
#19 = CC_DESIGN_DATE_AND_TIME_ASSIGNMENT ( #29, #195, ( #241 ) ) ;
#20 = CALENDAR_DATE ( 2018, 20, 6 ) ;
#21 = VECTOR ( 'NONE', #118, 39.37007874015748100 ) ;
#22 = ORIENTED_EDGE ( 'NONE', *, *, #34, .F. ) ;
#23 = CARTESIAN_POINT ( 'NONE',  ( 3.010477860689122200E-017, -0.2416483451040958900, 0.09258446167640492500 ) ) ;
#24 = DIRECTION ( 'NONE',  ( 0.0000000000000000000, -1.000000000000000000, -2.820688578824076000E-016 ) ) ;
#25 = DIRECTION ( 'NONE',  ( 0.0000000000000000000, 1.000000000000000000, 2.731847993664262700E-016 ) ) ;
#26 = PERSON_AND_ORGANIZATION ( #248, #227 ) ;
#27 = PERSON_AND_ORGANIZATION_ROLE ( 'creator' ) ;
#28 = CARTESIAN_POINT ( 'NONE',  ( 0.0000000000000000000, -1.872732853454882200E-017, 0.09258446167640499400 ) ) ;
#29 = DATE_AND_TIME ( #91, #162 ) ;
#30 = CARTESIAN_POINT ( 'NONE',  ( 0.0000000000000000000, 3.896938477837173600E-017, -0.09587352935991841400 ) ) ;
#31 = CC_DESIGN_PERSON_AND_ORGANIZATION_ASSIGNMENT ( #26, #76, ( #59 ) ) ;
#32 = FACE_OUTER_BOUND ( 'NONE', #182, .T. ) ;
#33 = CLOSED_SHELL ( 'NONE', ( #279, #64, #40, #87, #250, #185, #139, #165, #300 ) ) ;
#34 = EDGE_CURVE ( 'NONE', #18, #221, #302, .T. ) ;
#35 = CC_DESIGN_APPROVAL ( #240, ( #181 ) ) ;
#36 = APPROVAL_DATE_TIME ( #103, #45 ) ;
#37 = CIRCLE ( 'NONE', #75, 0.3070866141732283600 ) ;
#38 = EDGE_CURVE ( 'NONE', #4, #220, #243, .T. ) ;
#39 = CIRCLE ( 'NONE', #46, 0.2500000000000000000 ) ;
#40 = ADVANCED_FACE ( 'NONE', ( #183 ), #116, .T. ) ;
#41 = EDGE_LOOP ( 'NONE', ( #130, #146, #131, #196 ) ) ;
#42 = ADVANCED_BREP_SHAPE_REPRESENTATION ( '20141-E0W', ( #228, #114 ), #246 ) ;
#43 = EDGE_CURVE ( 'NONE', #221, #220, #113, .T. ) ;
#44 = APPROVAL_PERSON_ORGANIZATION ( #109, #45, #176 ) ;
#45 = APPROVAL ( #9, 'UNSPECIFIED' ) ;
#46 = AXIS2_PLACEMENT_3D ( 'NONE', #30, #197, #56 ) ;
#47 = CARTESIAN_POINT ( 'NONE',  ( 2.965188116045757500E-017, 0.2421259842519685700, -0.1037475451079497600 ) ) ;
#48 = VECTOR ( 'NONE', #77, 39.37007874015748900 ) ;
#49 = CARTESIAN_POINT ( 'NONE',  ( 3.061616997868383000E-017, -0.2499999999999999700, -0.09587352935991848300 ) ) ;
#50 = EDGE_CURVE ( 'NONE', #220, #4, #184, .T. ) ;
#51 = EDGE_CURVE ( 'NONE', #18, #4, #62, .T. ) ;
#52 = DIRECTION ( 'NONE',  ( 8.659560562354967400E-017, -0.7071067811865501300, -0.7071067811865448000 ) ) ;
#53 = CARTESIAN_POINT ( 'NONE',  ( 0.0000000000000000000, -2.033241896971980500E-017, 0.2820792265455934800 ) ) ;
#54 = ORIENTED_EDGE ( 'NONE', *, *, #272, .T. ) ;
#55 = APPROVAL_STATUS ( 'not_yet_approved' ) ;
#56 = DIRECTION ( 'NONE',  ( 0.0000000000000000000, 1.000000000000000000, 2.731847993664263200E-016 ) ) ;
#57 = EDGE_CURVE ( 'NONE', #221, #18, #303, .T. ) ;
#58 = VECTOR ( 'NONE', #52, 39.37007874015748900 ) ;
#59 = PRODUCT_DEFINITION_FORMATION_WITH_SPECIFIED_SOURCE ( 'ANY', '', #82, .NOT_KNOWN. ) ;
#60 = ORIENTED_EDGE ( 'NONE', *, *, #257, .T. ) ;
#61 = ORIENTED_EDGE ( 'NONE', *, *, #34, .T. ) ;
#62 = LINE ( 'NONE', #288, #58 ) ;
#63 = ORIENTED_EDGE ( 'NONE', *, *, #38, .F. ) ;
#64 = ADVANCED_FACE ( 'NONE', ( #230 ), #132, .F. ) ;
#65 = ORIENTED_EDGE ( 'NONE', *, *, #93, .F. ) ;
#66 = EDGE_LOOP ( 'NONE', ( #95, #80, #138, #60 ) ) ;
#67 = PLANE ( 'NONE',  #122 ) ;
#68 = DIRECTION ( 'NONE',  ( 8.659560562354951300E-017, 0.7071067811865486800, 0.7071067811865464600 ) ) ;
#69 = ORIENTED_EDGE ( 'NONE', *, *, #93, .T. ) ;
#70 = CARTESIAN_POINT ( 'NONE',  ( 0.0000000000000000000, 4.138002720715591900E-017, -0.1037475451079498300 ) ) ;
#71 = CARTESIAN_POINT ( 'NONE',  ( 0.0000000000000000000, 4.138002720715591900E-017, -0.1037475451079498300 ) ) ;
#72 = CARTESIAN_POINT ( 'NONE',  ( 0.0000000000000000000, 0.0000000000000000000, 0.0000000000000000000 ) ) ;
#73 = COORDINATED_UNIVERSAL_TIME_OFFSET ( 5, 0, .BEHIND. ) ;
#74 = DIRECTION ( 'NONE',  ( 0.0000000000000000000, 1.000000000000000000, 2.826263917188687800E-016 ) ) ;
#75 = AXIS2_PLACEMENT_3D ( 'NONE', #233, #97, #261 ) ;
#76 = PERSON_AND_ORGANIZATION_ROLE ( 'creator' ) ;
#77 = DIRECTION ( 'NONE',  ( 0.0000000000000000000, -0.7071067811865490200, 0.7071067811865459100 ) ) ;
#78 = AXIS2_PLACEMENT_3D ( 'NONE', #28, #242, #74 ) ;
#79 = ORIENTED_EDGE ( 'NONE', *, *, #57, .F. ) ;
#80 = ORIENTED_EDGE ( 'NONE', *, *, #38, .T. ) ;
#81 = LOCAL_TIME ( 10, 21, 3.000000000000000000, #151 ) ;
#82 = PRODUCT ( '20141-E0W', '20141-E0W', '', ( #264 ) ) ;
#83 = SHAPE_DEFINITION_REPRESENTATION ( #260, #42 ) ;
#84 = UNCERTAINTY_MEASURE_WITH_UNIT (LENGTH_MEASURE( 1.000000000000000100E-005 ), #150, 'distance_accuracy_value', 'NONE');
#85 = CIRCLE ( 'NONE', #275, 0.2421259842519685500 ) ;
#86 = DESIGN_CONTEXT ( 'detailed design', #289, 'design' ) ;
#87 = ADVANCED_FACE ( 'NONE', ( #111 ), #225, .T. ) ;
#88 = DIRECTION ( 'NONE',  ( -0.0000000000000000000, 3.061515884555943100E-016, -1.000000000000000000 ) ) ;
#89 = APPROVAL_DATE_TIME ( #159, #141 ) ;
#90 = AXIS2_PLACEMENT_3D ( 'NONE', #70, #188, #24 ) ;
#91 = CALENDAR_DATE ( 2018, 20, 6 ) ;
#92 = CIRCLE ( 'NONE', #133, 0.2500000000000000000 ) ;
#93 = EDGE_CURVE ( 'NONE', #224, #13, #179, .T. ) ;
#94 = DIRECTION ( 'NONE',  ( 1.000000000000000000, 1.224646799147353200E-016, 3.749275628560213600E-032 ) ) ;
#95 = ORIENTED_EDGE ( 'NONE', *, *, #299, .F. ) ;
#96 = DIRECTION ( 'NONE',  ( -0.0000000000000000000, 3.061515884555943100E-016, -1.000000000000000000 ) ) ;
#97 = DIRECTION ( 'NONE',  ( -1.000000000000000000, 0.0000000000000000000, 0.0000000000000000000 ) ) ;
#98 = CARTESIAN_POINT ( 'NONE',  ( 0.0000000000000000000, -1.872732853454882200E-017, 0.09258446167640499400 ) ) ;
#99 = DIRECTION ( 'NONE',  ( 0.0000000000000000000, 0.7071067811865506800, -0.7071067811865444600 ) ) ;
#100 = DIRECTION ( 'NONE',  ( 1.000000000000000000, 0.0000000000000000000, 0.0000000000000000000 ) ) ;
#101 = DIRECTION ( 'NONE',  ( -0.0000000000000000000, 3.061515884555943100E-016, -1.000000000000000000 ) ) ;
#102 = SECURITY_CLASSIFICATION_LEVEL ( 'unclassified' ) ;
#103 = DATE_AND_TIME ( #167, #222 ) ;
#104 = DIRECTION ( 'NONE',  ( 1.000000000000000000, 0.0000000000000000000, -0.0000000000000000000 ) ) ;
#105 = CC_DESIGN_DATE_AND_TIME_ASSIGNMENT ( #263, #126, ( #181 ) ) ;
#106 = CIRCLE ( 'NONE', #142, 0.3070866141732283600 ) ;
#107 = CC_DESIGN_SECURITY_CLASSIFICATION ( #181, ( #59 ) ) ;
#108 = CONICAL_SURFACE ( 'NONE', #90, 0.2421259842519685500, 0.7853981633974501700 ) ;
#109 = PERSON_AND_ORGANIZATION ( #248, #227 ) ;
#110 = ORIENTED_EDGE ( 'NONE', *, *, #50, .T. ) ;
#111 = FACE_OUTER_BOUND ( 'NONE', #129, .T. ) ;
#112 = DIMENSIONAL_EXPONENTS ( 1.000000000000000000, 0.0000000000000000000, 0.0000000000000000000, 0.0000000000000000000, 0.0000000000000000000, 0.0000000000000000000, 0.0000000000000000000 ) ;
#113 = LINE ( 'NONE', #236, #244 ) ;
#114 = AXIS2_PLACEMENT_3D ( 'NONE', #72, #237, #100 ) ;
#115 = CARTESIAN_POINT ( 'NONE',  ( 0.0000000000000000000, -0.2421259842519685200, -0.1037475451079499000 ) ) ;
#116 = CONICAL_SURFACE ( 'NONE', #123, 0.2416483451040958600, 0.7853981633974523900 ) ;
#117 = AXIS2_PLACEMENT_3D ( 'NONE', #10, #291, #154 ) ;
#118 = DIRECTION ( 'NONE',  ( -0.0000000000000000000, 3.061515884555943100E-016, -1.000000000000000000 ) ) ;
#119 = AXIS2_PLACEMENT_3D ( 'NONE', #71, #5, #235 ) ;
#120 = CARTESIAN_POINT ( 'NONE',  ( 0.0000000000000000000, 0.2500000000000000600, -0.1037475451079497200 ) ) ;
#121 = DIRECTION ( 'NONE',  ( 0.0000000000000000000, 1.000000000000000000, 2.826263917188687800E-016 ) ) ;
#122 = AXIS2_PLACEMENT_3D ( 'NONE', #283, #304, #169 ) ;
#123 = AXIS2_PLACEMENT_3D ( 'NONE', #149, #232, #147 ) ;
#124 = PERSON_AND_ORGANIZATION_ROLE ( 'design_owner' ) ;
#125 = DIRECTION ( 'NONE',  ( 0.0000000000000000000, 1.000000000000000000, 3.336006684570783100E-016 ) ) ;
#126 = DATE_TIME_ROLE ( 'classification_date' ) ;
#127 = PRODUCT_RELATED_PRODUCT_CATEGORY ( 'detail', '', ( #82 ) ) ;
#128 = DIRECTION ( 'NONE',  ( 0.0000000000000000000, 1.000000000000000000, 2.731847993664263200E-016 ) ) ;
#129 = EDGE_LOOP ( 'NONE', ( #110, #144, #145, #166 ) ) ;
#130 = ORIENTED_EDGE ( 'NONE', *, *, #57, .T. ) ;
#131 = ORIENTED_EDGE ( 'NONE', *, *, #50, .F. ) ;
#132 = SPHERICAL_SURFACE ( 'NONE', #255, 0.3070866141732283600 ) ;
#133 = AXIS2_PLACEMENT_3D ( 'NONE', #148, #3, #172 ) ;
#134 = AXIS2_PLACEMENT_3D ( 'NONE', #152, #8, #175 ) ;
#135 = CC_DESIGN_PERSON_AND_ORGANIZATION_ASSIGNMENT ( #177, #124, ( #82 ) ) ;
#136 = APPROVAL_DATE_TIME ( #194, #240 ) ;
#137 = ORIENTED_EDGE ( 'NONE', *, *, #43, .T. ) ;
#138 = ORIENTED_EDGE ( 'NONE', *, *, #294, .T. ) ;
#139 = ADVANCED_FACE ( 'NONE', ( #170 ), #168, .T. ) ;
#140 = VERTEX_POINT ( 'NONE', #268 ) ;
#141 = APPROVAL ( #55, 'UNSPECIFIED' ) ;
#142 = AXIS2_PLACEMENT_3D ( 'NONE', #229, #94, #258 ) ;
#143 = APPROVAL_PERSON_ORGANIZATION ( #199, #240, #155 ) ;
#144 = ORIENTED_EDGE ( 'NONE', *, *, #299, .T. ) ;
#145 = ORIENTED_EDGE ( 'NONE', *, *, #163, .T. ) ;
#146 = ORIENTED_EDGE ( 'NONE', *, *, #51, .T. ) ;
#147 = DIRECTION ( 'NONE',  ( 0.0000000000000000000, 1.000000000000000000, 2.826263917188687800E-016 ) ) ;
#148 = CARTESIAN_POINT ( 'NONE',  ( 0.0000000000000000000, 3.896938477837173600E-017, -0.09587352935991841400 ) ) ;
#149 = CARTESIAN_POINT ( 'NONE',  ( 0.0000000000000000000, -1.872732853454882200E-017, 0.09258446167640499400 ) ) ;
#150 =( CONVERSION_BASED_UNIT ( 'INCH', #267 ) LENGTH_UNIT ( ) NAMED_UNIT ( #112 ) );
#151 = COORDINATED_UNIVERSAL_TIME_OFFSET ( 5, 0, .BEHIND. ) ;
#152 = CARTESIAN_POINT ( 'NONE',  ( 0.0000000000000000000, -1.617045612193486100E-017, 0.08423280678050090700 ) ) ;
#153 = APPLICATION_PROTOCOL_DEFINITION ( 'international standard', 'config_control_design', 1994, #289 ) ;
#154 = DIRECTION ( 'NONE',  ( 0.0000000000000000000, 1.000000000000000000, 2.731847993664263200E-016 ) ) ;
#155 = APPROVAL_ROLE ( '' ) ;
#156 = ORIENTED_EDGE ( 'NONE', *, *, #257, .F. ) ;
#157 = LINE ( 'NONE', #190, #207 ) ;
#158 = CC_DESIGN_APPROVAL ( #45, ( #241 ) ) ;
#159 = DATE_AND_TIME ( #211, #274 ) ;
#160 = FACE_OUTER_BOUND ( 'NONE', #254, .T. ) ;
#161 = ORIENTED_EDGE ( 'NONE', *, *, #187, .T. ) ;
#162 = LOCAL_TIME ( 10, 21, 3.000000000000000000, #217 ) ;
#163 = EDGE_CURVE ( 'NONE', #13, #186, #39, .T. ) ;
#164 = FACE_OUTER_BOUND ( 'NONE', #200, .T. ) ;
#165 = ADVANCED_FACE ( 'NONE', ( #298 ), #296, .F. ) ;
#166 = ORIENTED_EDGE ( 'NONE', *, *, #294, .F. ) ;
#167 = CALENDAR_DATE ( 2018, 20, 6 ) ;
#168 = CONICAL_SURFACE ( 'NONE', #78, 0.2416483451040958600, 0.7853981633974523900 ) ;
#169 = DIRECTION ( 'NONE',  ( 0.0000000000000000000, 1.000000000000000000, 3.061515884555943100E-016 ) ) ;
#170 = FACE_OUTER_BOUND ( 'NONE', #212, .T. ) ;
#171 = DIRECTION ( 'NONE',  ( -0.0000000000000000000, 3.061515884555943100E-016, -1.000000000000000000 ) ) ;
#172 = DIRECTION ( 'NONE',  ( 0.0000000000000000000, 1.000000000000000000, 2.731847993664263200E-016 ) ) ;
#173 = DIRECTION ( 'NONE',  ( -0.0000000000000000000, 3.061515884555943100E-016, -1.000000000000000000 ) ) ;
#174 =( NAMED_UNIT ( * ) SI_UNIT ( $, .STERADIAN. ) SOLID_ANGLE_UNIT ( ) );
#175 = DIRECTION ( 'NONE',  ( 0.0000000000000000000, 1.000000000000000000, 2.731847993664262700E-016 ) ) ;
#176 = APPROVAL_ROLE ( '' ) ;
#177 = PERSON_AND_ORGANIZATION ( #248, #227 ) ;
#178 = ORIENTED_EDGE ( 'NONE', *, *, #163, .F. ) ;
#179 = LINE ( 'NONE', #216, #48 ) ;
#180 = ORIENTED_EDGE ( 'NONE', *, *, #11, .T. ) ;
#181 = SECURITY_CLASSIFICATION ( '', '', #102 ) ;
#182 = EDGE_LOOP ( 'NONE', ( #249, #192, #178, #65 ) ) ;
#183 = FACE_OUTER_BOUND ( 'NONE', #41, .T. ) ;
#184 = CIRCLE ( 'NONE', #134, 0.2500000000000000600 ) ;
#185 = ADVANCED_FACE ( 'NONE', ( #295 ), #219, .T. ) ;
#186 = VERTEX_POINT ( 'NONE', #202 ) ;
#187 = EDGE_CURVE ( 'NONE', #18, #281, #106, .T. ) ;
#188 = DIRECTION ( 'NONE',  ( 0.0000000000000000000, -3.061515884555943600E-016, 1.000000000000000000 ) ) ;
#189 = CARTESIAN_POINT ( 'NONE',  ( 0.0000000000000000000, 4.138002720715591900E-017, -0.1037475451079498300 ) ) ;
#190 = CARTESIAN_POINT ( 'NONE',  ( 3.061616997868383000E-017, -0.2499999999999999700, -0.1037475451079498500 ) ) ;
#191 = AXIS2_PLACEMENT_3D ( 'NONE', #231, #96, #259 ) ;
#192 = ORIENTED_EDGE ( 'NONE', *, *, #269, .T. ) ;
#193 = APPLICATION_PROTOCOL_DEFINITION ( 'international standard', 'config_control_design', 1994, #213 ) ;
#194 = DATE_AND_TIME ( #253, #17 ) ;
#195 = DATE_TIME_ROLE ( 'creation_date' ) ;
#196 = ORIENTED_EDGE ( 'NONE', *, *, #43, .F. ) ;
#197 = DIRECTION ( 'NONE',  ( 0.0000000000000000000, -3.061515884555943600E-016, 1.000000000000000000 ) ) ;
#198 = ORIENTED_EDGE ( 'NONE', *, *, #272, .F. ) ;
#199 = PERSON_AND_ORGANIZATION ( #248, #227 ) ;
#200 = EDGE_LOOP ( 'NONE', ( #226, #180 ) ) ;
#201 = ORIENTED_EDGE ( 'NONE', *, *, #251, .F. ) ;
#202 = CARTESIAN_POINT ( 'NONE',  ( 0.0000000000000000000, 0.2500000000000000600, -0.09587352935991834400 ) ) ;
#203 = CONICAL_SURFACE ( 'NONE', #119, 0.2421259842519685500, 0.7853981633974501700 ) ;
#204 = PERSON_AND_ORGANIZATION ( #248, #227 ) ;
#205 = COORDINATED_UNIVERSAL_TIME_OFFSET ( 5, 0, .BEHIND. ) ;
#206 = APPROVAL_PERSON_ORGANIZATION ( #276, #141, #215 ) ;
#207 = VECTOR ( 'NONE', #210, 39.37007874015748100 ) ;
#208 = CARTESIAN_POINT ( 'NONE',  ( 0.0000000000000000000, 0.2416483451040958000, 0.09258446167640506400 ) ) ;
#209 = CARTESIAN_POINT ( 'NONE',  ( 3.061616997868383600E-017, -0.2500000000000000600, 0.08423280678050085200 ) ) ;
#210 = DIRECTION ( 'NONE',  ( -0.0000000000000000000, 3.061515884555943100E-016, -1.000000000000000000 ) ) ;
#211 = CALENDAR_DATE ( 2018, 20, 6 ) ;
#212 = EDGE_LOOP ( 'NONE', ( #2, #61, #137, #63 ) ) ;
#213 = APPLICATION_CONTEXT ( 'configuration controlled 3d designs of mechanical parts and assemblies' ) ;
#214 = DIRECTION ( 'NONE',  ( 1.000000000000000000, 0.0000000000000000000, -0.0000000000000000000 ) ) ;
#215 = APPROVAL_ROLE ( '' ) ;
#216 = CARTESIAN_POINT ( 'NONE',  ( 0.0000000000000000000, -0.2421259842519685200, -0.1037475451079499000 ) ) ;
#217 = COORDINATED_UNIVERSAL_TIME_OFFSET ( 5, 0, .BEHIND. ) ;
#218 = DIRECTION ( 'NONE',  ( 0.0000000000000000000, 1.000000000000000000, 3.336006684570783100E-016 ) ) ;
#219 = CYLINDRICAL_SURFACE ( 'NONE', #245, 0.2500000000000000000 ) ;
#220 = VERTEX_POINT ( 'NONE', #284 ) ;
#221 = VERTEX_POINT ( 'NONE', #208 ) ;
#222 = LOCAL_TIME ( 10, 21, 3.000000000000000000, #292 ) ;
#223 = LINE ( 'NONE', #47, #277 ) ;
#224 = VERTEX_POINT ( 'NONE', #115 ) ;
#225 = CYLINDRICAL_SURFACE ( 'NONE', #117, 0.2500000000000000000 ) ;
#226 = ORIENTED_EDGE ( 'NONE', *, *, #251, .T. ) ;
#227 = ORGANIZATION ( 'UNSPECIFIED', 'UNSPECIFIED', '' ) ;
#228 = MANIFOLD_SOLID_BREP ( '20141-001-1-solid1', #33 ) ;
#229 = CARTESIAN_POINT ( 'NONE',  ( 0.0000000000000000000, -2.033241896971980500E-017, 0.2820792265455934800 ) ) ;
#230 = FACE_OUTER_BOUND ( 'NONE', #16, .T. ) ;
#231 = CARTESIAN_POINT ( 'NONE',  ( 0.0000000000000000000, 4.138002720715591900E-017, -0.1037475451079498300 ) ) ;
#232 = DIRECTION ( 'NONE',  ( -0.0000000000000000000, 3.061515884555943100E-016, -1.000000000000000000 ) ) ;
#233 = CARTESIAN_POINT ( 'NONE',  ( 0.0000000000000000000, -2.033241896971980500E-017, 0.2820792265455934800 ) ) ;
#234 = AXIS2_PLACEMENT_3D ( 'NONE', #12, #104, #218 ) ;
#235 = DIRECTION ( 'NONE',  ( 0.0000000000000000000, -1.000000000000000000, -2.820688578824076000E-016 ) ) ;
#236 = CARTESIAN_POINT ( 'NONE',  ( 0.0000000000000000000, 0.2416483451040958000, 0.09258446167640506400 ) ) ;
#237 = DIRECTION ( 'NONE',  ( 0.0000000000000000000, 0.0000000000000000000, 1.000000000000000000 ) ) ;
#238 = CARTESIAN_POINT ( 'NONE',  ( 0.0000000000000000000, -1.872732853454882200E-017, 0.09258446167640499400 ) ) ;
#239 = PERSON_AND_ORGANIZATION_ROLE ( 'design_supplier' ) ;
#240 = APPROVAL ( #293, 'UNSPECIFIED' ) ;
#241 = PRODUCT_DEFINITION ( 'UNKNOWN', '', #59, #86 ) ;
#242 = DIRECTION ( 'NONE',  ( -0.0000000000000000000, 3.061515884555943100E-016, -1.000000000000000000 ) ) ;
#243 = CIRCLE ( 'NONE', #301, 0.2500000000000000600 ) ;
#244 = VECTOR ( 'NONE', #99, 39.37007874015748100 ) ;
#245 = AXIS2_PLACEMENT_3D ( 'NONE', #271, #88, #128 ) ;
#246 =( GEOMETRIC_REPRESENTATION_CONTEXT ( 3 ) GLOBAL_UNCERTAINTY_ASSIGNED_CONTEXT ( ( #84 ) ) GLOBAL_UNIT_ASSIGNED_CONTEXT ( ( #150, #7, #174 ) ) REPRESENTATION_CONTEXT ( 'NONE', 'WORKASPACE' ) );
#247 = CC_DESIGN_PERSON_AND_ORGANIZATION_ASSIGNMENT ( #204, #266, ( #181 ) ) ;
#248 = PERSON ( 'UNSPECIFIED', 'UNSPECIFIED', 'UNSPECIFIED', ('UNSPECIFIED'), ('UNSPECIFIED'), ('UNSPECIFIED') ) ;
#249 = ORIENTED_EDGE ( 'NONE', *, *, #11, .F. ) ;
#250 = ADVANCED_FACE ( 'NONE', ( #164 ), #67, .T. ) ;
#251 = EDGE_CURVE ( 'NONE', #224, #140, #282, .T. ) ;
#252 = CC_DESIGN_APPROVAL ( #141, ( #59 ) ) ;
#253 = CALENDAR_DATE ( 2018, 20, 6 ) ;
#254 = EDGE_LOOP ( 'NONE', ( #15, #201, #69, #156 ) ) ;
#255 = AXIS2_PLACEMENT_3D ( 'NONE', #53, #214, #125 ) ;
#256 = EDGE_LOOP ( 'NONE', ( #286, #79, #54 ) ) ;
#257 = EDGE_CURVE ( 'NONE', #186, #13, #92, .T. ) ;
#258 = DIRECTION ( 'NONE',  ( -1.224646799147353200E-016, 1.000000000000000000, 0.0000000000000000000 ) ) ;
#259 = DIRECTION ( 'NONE',  ( 0.0000000000000000000, 1.000000000000000000, 2.820688578824076000E-016 ) ) ;
#260 = PRODUCT_DEFINITION_SHAPE ( 'NONE', 'NONE',  #241 ) ;
#261 = DIRECTION ( 'NONE',  ( 0.0000000000000000000, 0.0000000000000000000, 1.000000000000000000 ) ) ;
#262 = DIRECTION ( 'NONE',  ( -0.0000000000000000000, 3.061515884555943100E-016, -1.000000000000000000 ) ) ;
#263 = DATE_AND_TIME ( #20, #81 ) ;
#264 = MECHANICAL_CONTEXT ( 'NONE', #213, 'mechanical' ) ;
#265 = DIRECTION ( 'NONE',  ( 0.0000000000000000000, 1.000000000000000000, 2.826263917188687800E-016 ) ) ;
#266 = PERSON_AND_ORGANIZATION_ROLE ( 'classification_officer' ) ;
#267 = LENGTH_MEASURE_WITH_UNIT ( LENGTH_MEASURE( 0.02539999999999999900 ), #287 );
#268 = CARTESIAN_POINT ( 'NONE',  ( 3.013402556957069900E-017, 0.2421259842519685700, -0.1037475451079497600 ) ) ;
#269 = EDGE_CURVE ( 'NONE', #140, #186, #223, .T. ) ;
#270 = LINE ( 'NONE', #120, #21 ) ;
#271 = CARTESIAN_POINT ( 'NONE',  ( 0.0000000000000000000, 4.138002720715591300E-017, -0.1037475451079497800 ) ) ;
#272 = EDGE_CURVE ( 'NONE', #221, #281, #37, .T. ) ;
#273 = PERSON_AND_ORGANIZATION ( #248, #227 ) ;
#274 = LOCAL_TIME ( 10, 21, 3.000000000000000000, #205 ) ;
#275 = AXIS2_PLACEMENT_3D ( 'NONE', #189, #171, #1 ) ;
#276 = PERSON_AND_ORGANIZATION ( #248, #227 ) ;
#277 = VECTOR ( 'NONE', #68, 39.37007874015748100 ) ;
#278 = AXIS2_PLACEMENT_3D ( 'NONE', #238, #101, #265 ) ;
#279 = ADVANCED_FACE ( 'NONE', ( #32 ), #108, .T. ) ;
#280 = PERSON_AND_ORGANIZATION ( #248, #227 ) ;
#281 = VERTEX_POINT ( 'NONE', #285 ) ;
#282 = CIRCLE ( 'NONE', #191, 0.2421259842519685500 ) ;
#283 = CARTESIAN_POINT ( 'NONE',  ( 0.0000000000000000000, 4.138002720715591900E-017, -0.1037475451079498300 ) ) ;
#284 = CARTESIAN_POINT ( 'NONE',  ( 0.0000000000000000000, 0.2500000000000000600, 0.08423280678050097700 ) ) ;
#285 = CARTESIAN_POINT ( 'NONE',  ( 0.0000000000000000000, 9.248626770827639400E-017, -0.02500738762763487400 ) ) ;
#286 = ORIENTED_EDGE ( 'NONE', *, *, #187, .F. ) ;
#287 =( LENGTH_UNIT ( ) NAMED_UNIT ( * ) SI_UNIT ( $, .METRE. ) );
#288 = CARTESIAN_POINT ( 'NONE',  ( 2.959338723509859500E-017, -0.2416483451040958900, 0.09258446167640492500 ) ) ;
#289 = APPLICATION_CONTEXT ( 'configuration controlled 3d designs of mechanical parts and assemblies' ) ;
#290 = CC_DESIGN_PERSON_AND_ORGANIZATION_ASSIGNMENT ( #273, #239, ( #59 ) ) ;
#291 = DIRECTION ( 'NONE',  ( -0.0000000000000000000, 3.061515884555943100E-016, -1.000000000000000000 ) ) ;
#292 = COORDINATED_UNIVERSAL_TIME_OFFSET ( 5, 0, .BEHIND. ) ;
#293 = APPROVAL_STATUS ( 'not_yet_approved' ) ;
#294 = EDGE_CURVE ( 'NONE', #220, #186, #270, .T. ) ;
#295 = FACE_OUTER_BOUND ( 'NONE', #66, .T. ) ;
#296 = SPHERICAL_SURFACE ( 'NONE', #234, 0.3070866141732283600 ) ;
#297 = AXIS2_PLACEMENT_3D ( 'NONE', #98, #262, #121 ) ;
#298 = FACE_OUTER_BOUND ( 'NONE', #256, .T. ) ;
#299 = EDGE_CURVE ( 'NONE', #4, #13, #157, .T. ) ;
#300 = ADVANCED_FACE ( 'NONE', ( #160 ), #203, .T. ) ;
#301 = AXIS2_PLACEMENT_3D ( 'NONE', #6, #173, #25 ) ;
#302 = CIRCLE ( 'NONE', #297, 0.2416483451040958600 ) ;
#303 = CIRCLE ( 'NONE', #278, 0.2416483451040958600 ) ;
#304 = DIRECTION ( 'NONE',  ( -0.0000000000000000000, 3.061515884555943100E-016, -1.000000000000000000 ) ) ;
ENDSEC;
END-ISO-10303-21;
