ISO-10303-21;
HEADER;
FILE_DESCRIPTION (( 'STEP AP203' ),
    '1' );
FILE_NAME ('20mm BEAMSPLITTER CUBE TS_13424.step',
    '2020-10-29T14:34:42',
    ( '' ),
    ( '' ),
    'SwSTEP 2.0',
    'SolidWorks 2018',
    '' );
FILE_SCHEMA (( 'CONFIG_CONTROL_DESIGN' ));
ENDSEC;

DATA;
#1 = PLANE ( 'NONE',  #233 ) ;
#2 = PERSON_AND_ORGANIZATION ( #110, #244 ) ;
#3 = CARTESIAN_POINT ( 'NONE',  ( 0.0000000000000000000, 0.0000000000000000000, 0.0000000000000000000 ) ) ;
#4 = DATE_AND_TIME ( #346, #44 ) ;
#5 = DIRECTION ( 'NONE',  ( 1.000000000000000000, -6.429395695523596264E-17, 0.0000000000000000000 ) ) ;
#6 = CARTESIAN_POINT ( 'NONE',  ( -14.14213562373104693, 3.009265538105056020E-32, -10.00000000000001066 ) ) ;
#7 = CC_DESIGN_APPROVAL ( #251, ( #307 ) ) ;
#8 = LOCAL_TIME ( 10, 34, 42.00000000000000000, #226 ) ;
#9 = ORIENTED_EDGE ( 'NONE', *, *, #224, .T. ) ;
#10 = PRODUCT_DEFINITION_SHAPE ( 'NONE', 'NONE',  #360 ) ;
#11 = CC_DESIGN_PERSON_AND_ORGANIZATION_ASSIGNMENT ( #205, #271, ( #67 ) ) ;
#12 = APPROVAL_PERSON_ORGANIZATION ( #125, #95, #36 ) ;
#13 = PERSON_AND_ORGANIZATION ( #47, #252 ) ;
#14 = DATE_AND_TIME ( #316, #199 ) ;
#15 = VERTEX_POINT ( 'NONE', #282 ) ;
#16 = UNCERTAINTY_MEASURE_WITH_UNIT (LENGTH_MEASURE( 1.000000000000000082E-05 ), #198, 'distance_accuracy_value', 'NONE');
#17 = PRODUCT ( '20mm BEAMSPLITTER CUBE TS_13424', '20mm BEAMSPLITTER CUBE TS_13424', '', ( #116 ) ) ;
#18 = CALENDAR_DATE ( 2020, 29, 10 ) ;
#19 = LOCAL_TIME ( 10, 34, 42.00000000000000000, #130 ) ;
#20 = EDGE_LOOP ( 'NONE', ( #29, #343, #261, #181 ) ) ;
#21 = APPROVAL_PERSON_ORGANIZATION ( #62, #189, #97 ) ;
#22 = CC_DESIGN_PERSON_AND_ORGANIZATION_ASSIGNMENT ( #237, #280, ( #307 ) ) ;
#23 = FACE_OUTER_BOUND ( 'NONE', #20, .T. ) ;
#24 = ORIENTED_EDGE ( 'NONE', *, *, #323, .F. ) ;
#25 = APPROVAL_ROLE ( '' ) ;
#26 = DIRECTION ( 'NONE',  ( 1.000000000000000000, -6.429395695523596264E-17, 0.0000000000000000000 ) ) ;
#27 = PLANE ( 'NONE',  #76 ) ;
#28 = DATE_AND_TIME ( #325, #193 ) ;
#29 = ORIENTED_EDGE ( 'NONE', *, *, #230, .T. ) ;
#30 = AXIS2_PLACEMENT_3D ( 'NONE', #146, #305, #108 ) ;
#31 = DIRECTION ( 'NONE',  ( -0.7071067811865515695, -0.7071067811865435759, 0.0000000000000000000 ) ) ;
#32 = CARTESIAN_POINT ( 'NONE',  ( 0.0000000000000000000, 0.0000000000000000000, 0.0000000000000000000 ) ) ;
#33 = LOCAL_TIME ( 10, 34, 42.00000000000000000, #149 ) ;
#34 = DIRECTION ( 'NONE',  ( 0.0000000000000000000, 0.0000000000000000000, 1.000000000000000000 ) ) ;
#35 = EDGE_LOOP ( 'NONE', ( #293, #24, #45, #166 ) ) ;
#36 = APPROVAL_ROLE ( '' ) ;
#37 = CC_DESIGN_APPROVAL ( #124, ( #156 ) ) ;
#38 = ORGANIZATION ( 'NAUO-ORG2', 'UNSPECIFIED', 'UNSPECIFIED' ) ;
#39 = PRODUCT_DEFINITION_SHAPE ( 'NONE', 'NONE',  #361 ) ;
#40 = APPROVAL_DATE_TIME ( #112, #291 ) ;
#41 = APPROVAL_ROLE ( '' ) ;
#42 = SHAPE_REPRESENTATION ( '20x20 Right Angle Prism Master', ( #182 ), #352 ) ;
#43 = APPROVAL_DATE_TIME ( #88, #189 ) ;
#44 = LOCAL_TIME ( 10, 34, 42.00000000000000000, #133 ) ;
#45 = ORIENTED_EDGE ( 'NONE', *, *, #160, .F. ) ;
#46 = SECURITY_CLASSIFICATION ( '', '', #247 ) ;
#47 = PERSON ( 'NAUO-PER1', 'UNSPECIFIED', 'UNSPECIFIED', ('UNSPECIFIED'), ('UNSPECIFIED'), ('UNSPECIFIED') ) ;
#48 = LOCAL_TIME ( 10, 34, 42.00000000000000000, #126 ) ;
#49 = CALENDAR_DATE ( 2020, 29, 10 ) ;
#50 = CC_DESIGN_SECURITY_CLASSIFICATION ( #268, ( #360 ) ) ;
#51 =( NAMED_UNIT ( * ) PLANE_ANGLE_UNIT ( ) SI_UNIT ( $, .RADIAN. ) );
#52 = LOCAL_TIME ( 10, 34, 42.00000000000000000, #98 ) ;
#53 = VERTEX_POINT ( 'NONE', #332 ) ;
#54 = MECHANICAL_CONTEXT ( 'NONE', #111, 'mechanical' ) ;
#55 = DIRECTION ( 'NONE',  ( 1.000000000000000000, 0.0000000000000000000, 0.0000000000000000000 ) ) ;
#56 = CARTESIAN_POINT ( 'NONE',  ( 14.14213562373104693, -1.818507718094545588E-15, -10.00000000000001066 ) ) ;
#57 = APPROVAL_ROLE ( '' ) ;
#58 = PRODUCT_RELATED_PRODUCT_CATEGORY ( 'detail', '', ( #17 ) ) ;
#59 = DIRECTION ( 'NONE',  ( 0.0000000000000000000, -0.0000000000000000000, -1.000000000000000000 ) ) ;
#60 = APPLICATION_CONTEXT ( 'configuration controlled 3d designs of mechanical parts and assemblies' ) ;
#61 = APPLICATION_PROTOCOL_DEFINITION ( 'international standard', 'config_control_design', 1994, #195 ) ;
#62 = PERSON_AND_ORGANIZATION ( #110, #244 ) ;
#63 = DATE_AND_TIME ( #137, #357 ) ;
#64 = CARTESIAN_POINT ( 'NONE',  ( 0.0000000000000000000, 0.0000000000000000000, 0.0000000000000000000 ) ) ;
#65 = CC_DESIGN_PERSON_AND_ORGANIZATION_ASSIGNMENT ( #136, #143, ( #46 ) ) ;
#66 = SHAPE_REPRESENTATION_RELATIONSHIP ( 'NONE' , 'NONE' ,  #42, #113 ) ;
#67 = PRODUCT_DEFINITION ( 'UNKNOWN', '', #156, #347 ) ;
#68 = APPROVAL_DATE_TIME ( #28, #251 ) ;
#69 = COORDINATED_UNIVERSAL_TIME_OFFSET ( 5, 0, .BEHIND. ) ;
#70 = LINE ( 'NONE', #308, #340 ) ;
#71 = CC_DESIGN_SECURITY_CLASSIFICATION ( #260, ( #361 ) ) ;
#72 = APPROVAL_DATE_TIME ( #269, #319 ) ;
#73 = CALENDAR_DATE ( 2020, 29, 10 ) ;
#74 = APPROVAL_ROLE ( '' ) ;
#75 = PERSON_AND_ORGANIZATION_ROLE ( 'creator' ) ;
#76 = AXIS2_PLACEMENT_3D ( 'NONE', #333, #246, #81 ) ;
#77 = EDGE_CURVE ( 'NONE', #101, #53, #322, .T. ) ;
#78 = CARTESIAN_POINT ( 'NONE',  ( -14.14213562373104693, 3.009265538105056020E-32, 10.00000000000001066 ) ) ;
#79 = PERSON_AND_ORGANIZATION ( #110, #244 ) ;
#80 = EDGE_LOOP ( 'NONE', ( #239, #256, #202 ) ) ;
#81 = DIRECTION ( 'NONE',  ( 1.000000000000000000, 0.0000000000000000000, 0.0000000000000000000 ) ) ;
#82 = DIRECTION ( 'NONE',  ( -0.7071067811865515695, 0.7071067811865435759, 0.0000000000000000000 ) ) ;
#83 = ADVANCED_FACE ( 'NONE', ( #299 ), #27, .T. ) ;
#84 = PERSON_AND_ORGANIZATION_ROLE ( 'design_supplier' ) ;
#85 = APPROVAL_DATE_TIME ( #259, #95 ) ;
#86 = PERSON_AND_ORGANIZATION_ROLE ( 'design_owner' ) ;
#87 = APPROVAL ( #338, 'UNSPECIFIED' ) ;
#88 = DATE_AND_TIME ( #356, #127 ) ;
#89 = DIRECTION ( 'NONE',  ( 6.429395695523596264E-17, 1.000000000000000000, 0.0000000000000000000 ) ) ;
#90 = DIRECTION ( 'NONE',  ( 0.0000000000000000000, 0.0000000000000000000, 1.000000000000000000 ) ) ;
#91 = DIRECTION ( 'NONE',  ( -1.000000000000000222, 0.0000000000000000000, 5.551115123125782702E-17 ) ) ;
#92 = DIRECTION ( 'NONE',  ( 0.0000000000000000000, -0.0000000000000000000, -1.000000000000000000 ) ) ;
#93 = PERSON_AND_ORGANIZATION ( #110, #244 ) ;
#94 = EDGE_LOOP ( 'NONE', ( #267, #162, #123 ) ) ;
#95 = APPROVAL ( #264, 'UNKNOWN' ) ;
#96 = APPROVAL_PERSON_ORGANIZATION ( #119, #251, #74 ) ;
#97 = APPROVAL_ROLE ( '' ) ;
#98 = COORDINATED_UNIVERSAL_TIME_OFFSET ( 5, 0, .BEHIND. ) ;
#99 = VECTOR ( 'NONE', #31, 999.9999999999998863 ) ;
#100 = CC_DESIGN_PERSON_AND_ORGANIZATION_ASSIGNMENT ( #201, #84, ( #156 ) ) ;
#101 = VERTEX_POINT ( 'NONE', #56 ) ;
#102 = PRODUCT_DEFINITION ( 'UNKNOWN', '', #307, #355 ) ;
#103 = APPROVAL_STATUS ( 'not_yet_approved' ) ;
#104 = PERSON ( 'NAUO-PER2', 'UNSPECIFIED', 'UNSPECIFIED', ('UNSPECIFIED'), ('UNSPECIFIED'), ('UNSPECIFIED') ) ;
#105 = CALENDAR_DATE ( 2020, 29, 10 ) ;
#106 = SHAPE_DEFINITION_REPRESENTATION ( #286, #42 ) ;
#107 = PERSON_AND_ORGANIZATION_ROLE ( 'creator' ) ;
#108 = DIRECTION ( 'NONE',  ( 0.7071067811865514585, -0.7071067811865434649, 0.0000000000000000000 ) ) ;
#109 = CC_DESIGN_SECURITY_CLASSIFICATION ( #262, ( #156 ) ) ;
#110 = PERSON ( 'UNSPECIFIED', 'UNSPECIFIED', 'UNSPECIFIED', ('UNSPECIFIED'), ('UNSPECIFIED'), ('UNSPECIFIED') ) ;
#111 = APPLICATION_CONTEXT ( 'configuration controlled 3d designs of mechanical parts and assemblies' ) ;
#112 = DATE_AND_TIME ( #163, #185 ) ;
#113 = ADVANCED_BREP_SHAPE_REPRESENTATION ( '', ( #320, #182 ), #352 ) ;
#114 = PERSON_AND_ORGANIZATION_ROLE ( 'design_owner' ) ;
#115 =( NAMED_UNIT ( * ) PLANE_ANGLE_UNIT ( ) SI_UNIT ( $, .RADIAN. ) );
#116 = MECHANICAL_CONTEXT ( 'NONE', #195, 'mechanical' ) ;
#117 = DIRECTION ( 'NONE',  ( 0.0000000000000000000, 0.0000000000000000000, 1.000000000000000000 ) ) ;
#118 = APPLICATION_PROTOCOL_DEFINITION ( 'international standard', 'config_control_design', 1994, #173 ) ;
#119 = PERSON_AND_ORGANIZATION ( #110, #244 ) ;
#120 = CARTESIAN_POINT ( 'NONE',  ( 0.0000000000000000000, 0.0000000000000000000, 0.0000000000000000000 ) ) ;
#121 = EDGE_CURVE ( 'NONE', #132, #337, #70, .T. ) ;
#122 = LINE ( 'NONE', #359, #178 ) ;
#123 = ORIENTED_EDGE ( 'NONE', *, *, #135, .T. ) ;
#124 = APPROVAL ( #103, 'UNSPECIFIED' ) ;
#125 = PERSON_AND_ORGANIZATION ( #104, #38 ) ;
#126 = COORDINATED_UNIVERSAL_TIME_OFFSET ( 5, 0, .BEHIND. ) ;
#127 = LOCAL_TIME ( 10, 34, 42.00000000000000000, #234 ) ;
#128 =( REPRESENTATION_RELATIONSHIP ('NONE','NONE', #164, #42 ) REPRESENTATION_RELATIONSHIP_WITH_TRANSFORMATION ( #158 )SHAPE_REPRESENTATION_RELATIONSHIP( ) );
#129 = CC_DESIGN_PERSON_AND_ORGANIZATION_ASSIGNMENT ( #177, #114, ( #144 ) ) ;
#130 = COORDINATED_UNIVERSAL_TIME_OFFSET ( 5, 0, .BEHIND. ) ;
#131 = PERSON_AND_ORGANIZATION ( #110, #244 ) ;
#132 = VERTEX_POINT ( 'NONE', #78 ) ;
#133 = COORDINATED_UNIVERSAL_TIME_OFFSET ( 5, 0, .BEHIND. ) ;
#134 = CC_DESIGN_APPROVAL ( #236, ( #67 ) ) ;
#135 = EDGE_CURVE ( 'NONE', #132, #245, #212, .T. ) ;
#136 = PERSON_AND_ORGANIZATION ( #110, #244 ) ;
#137 = CALENDAR_DATE ( 2020, 29, 10 ) ;
#138 = UNCERTAINTY_MEASURE_WITH_UNIT (LENGTH_MEASURE( 1.000000000000000082E-05 ), #315, 'distance_accuracy_value', 'NONE');
#139 = CC_DESIGN_APPROVAL ( #319, ( #102 ) ) ;
#140 = CARTESIAN_POINT ( 'NONE',  ( -14.14213562373104693, 3.009265538105056020E-32, 10.00000000000001066 ) ) ;
#141 = CARTESIAN_POINT ( 'NONE',  ( 8.700747372918609639E-17, 14.14213562373087640, 10.00000000000001066 ) ) ;
#142 = VECTOR ( 'NONE', #26, 1000.000000000000000 ) ;
#143 = PERSON_AND_ORGANIZATION_ROLE ( 'classification_officer' ) ;
#144 = PRODUCT ( '20x20 Right Angle Prism Master', '20x20 Right Angle Prism Master', '', ( #54 ) ) ;
#145 = APPROVAL_STATUS ( 'not_yet_approved' ) ;
#146 = CARTESIAN_POINT ( 'NONE',  ( 14.14213562373104693, -1.818507718094545588E-15, 10.00000000000001066 ) ) ;
#147 = APPROVAL_STATUS ( 'not_yet_approved' ) ;
#148 = LOCAL_TIME ( 10, 34, 42.00000000000000000, #69 ) ;
#149 = COORDINATED_UNIVERSAL_TIME_OFFSET ( 5, 0, .BEHIND. ) ;
#150 = ADVANCED_FACE ( 'NONE', ( #231 ), #278, .F. ) ;
#151 = COORDINATED_UNIVERSAL_TIME_OFFSET ( 5, 0, .BEHIND. ) ;
#152 = CARTESIAN_POINT ( 'NONE',  ( 0.0000000000000000000, 0.0000000000000000000, 0.0000000000000000000 ) ) ;
#153 = APPROVAL_DATE_TIME ( #281, #236 ) ;
#154 = SECURITY_CLASSIFICATION_LEVEL ( 'unclassified' ) ;
#155 = LINE ( 'NONE', #222, #354 ) ;
#156 = PRODUCT_DEFINITION_FORMATION_WITH_SPECIFIED_SOURCE ( 'ANY', '', #17, .NOT_KNOWN. ) ;
#157 = DATE_TIME_ROLE ( 'classification_date' ) ;
#158 = ITEM_DEFINED_TRANSFORMATION ( 'NONE', 'NONE', #197,  #182 ) ;
#159 = LINE ( 'NONE', #312, #238 ) ;
#160 = EDGE_CURVE ( 'NONE', #245, #15, #155, .T. ) ;
#161 =( GEOMETRIC_REPRESENTATION_CONTEXT ( 3 ) GLOBAL_UNCERTAINTY_ASSIGNED_CONTEXT ( ( #138 ) ) GLOBAL_UNIT_ASSIGNED_CONTEXT ( ( #315, #51, #328 ) ) REPRESENTATION_CONTEXT ( 'NONE', 'WORKASPACE' ) );
#162 = ORIENTED_EDGE ( 'NONE', *, *, #302, .T. ) ;
#163 = CALENDAR_DATE ( 2020, 29, 10 ) ;
#164 = SHAPE_REPRESENTATION ( '20mm BEAMSPLITTER CUBE TS_13424', ( #207, #221, #197 ), #161 ) ;
#165 = CALENDAR_DATE ( 2020, 29, 10 ) ;
#166 = ORIENTED_EDGE ( 'NONE', *, *, #183, .T. ) ;
#167 = APPLICATION_PROTOCOL_DEFINITION ( 'international standard', 'config_control_design', 1994, #60 ) ;
#168 = DIRECTION ( 'NONE',  ( 0.7071067811865515695, 0.7071067811865434649, 0.0000000000000000000 ) ) ;
#169 = PERSON_AND_ORGANIZATION_ROLE ( 'classification_officer' ) ;
#170 = CC_DESIGN_APPROVAL ( #95, ( #260 ) ) ;
#171 = ADVANCED_FACE ( 'NONE', ( #206 ), #1, .F. ) ;
#172 = COORDINATED_UNIVERSAL_TIME_OFFSET ( 5, 0, .BEHIND. ) ;
#173 = APPLICATION_CONTEXT ( 'configuration controlled 3d designs of mechanical parts and assemblies' ) ;
#174 = CARTESIAN_POINT ( 'NONE',  ( 8.700747372918609639E-17, 14.14213562373087640, -10.00000000000001066 ) ) ;
#175 = DIRECTION ( 'NONE',  ( 0.0000000000000000000, 0.0000000000000000000, 1.000000000000000000 ) ) ;
#176 =( NAMED_UNIT ( * ) SI_UNIT ( $, .STERADIAN. ) SOLID_ANGLE_UNIT ( ) );
#177 = PERSON_AND_ORGANIZATION ( #110, #244 ) ;
#178 = VECTOR ( 'NONE', #59, 1000.000000000000000 ) ;
#179 = CC_DESIGN_DATE_AND_TIME_ASSIGNMENT ( #310, #191, ( #46 ) ) ;
#180 = CALENDAR_DATE ( 2020, 29, 10 ) ;
#181 = ORIENTED_EDGE ( 'NONE', *, *, #121, .T. ) ;
#182 = AXIS2_PLACEMENT_3D ( 'NONE', #32, #34, #229 ) ;
#183 = EDGE_CURVE ( 'NONE', #245, #101, #122, .T. ) ;
#184 = DATE_AND_TIME ( #165, #52 ) ;
#185 = LOCAL_TIME ( 10, 34, 42.00000000000000000, #295 ) ;
#186 = COORDINATED_UNIVERSAL_TIME_OFFSET ( 5, 0, .BEHIND. ) ;
#187 = VECTOR ( 'NONE', #5, 1000.000000000000000 ) ;
#188 = SECURITY_CLASSIFICATION_LEVEL ( 'unclassified' ) ;
#189 = APPROVAL ( #145, 'UNSPECIFIED' ) ;
#190 = APPROVAL_ROLE ( '' ) ;
#191 = DATE_TIME_ROLE ( 'classification_date' ) ;
#192 = PRODUCT_DEFINITION_SHAPE ( 'NONE', 'NONE',  #67 ) ;
#193 = LOCAL_TIME ( 10, 34, 42.00000000000000000, #349 ) ;
#194 = ORIENTED_EDGE ( 'NONE', *, *, #323, .T. ) ;
#195 = APPLICATION_CONTEXT ( 'configuration controlled 3d designs of mechanical parts and assemblies' ) ;
#196 = DATE_TIME_ROLE ( 'creation_date' ) ;
#197 = AXIS2_PLACEMENT_3D ( 'NONE', #64, #254, #91 ) ;
#198 =( LENGTH_UNIT ( ) NAMED_UNIT ( * ) SI_UNIT ( .MILLI., .METRE. ) );
#199 = LOCAL_TIME ( 10, 34, 42.00000000000000000, #186 ) ;
#200 = DIRECTION ( 'NONE',  ( 1.000000000000000000, 0.0000000000000000000, 0.0000000000000000000 ) ) ;
#201 = PERSON_AND_ORGANIZATION ( #110, #244 ) ;
#202 = ORIENTED_EDGE ( 'NONE', *, *, #224, .F. ) ;
#203 = APPROVAL_STATUS ( 'not_yet_approved' ) ;
#204 = CARTESIAN_POINT ( 'NONE',  ( -14.14213562373104693, 3.009265538105056020E-32, -10.00000000000001066 ) ) ;
#205 = PERSON_AND_ORGANIZATION ( #110, #244 ) ;
#206 = FACE_OUTER_BOUND ( 'NONE', #331, .T. ) ;
#207 = AXIS2_PLACEMENT_3D ( 'NONE', #120, #248, #55 ) ;
#208 = DATE_TIME_ROLE ( 'classification_date' ) ;
#209 = APPROVAL_PERSON_ORGANIZATION ( #93, #319, #57 ) ;
#210 = CC_DESIGN_APPROVAL ( #189, ( #46 ) ) ;
#211 = VECTOR ( 'NONE', #257, 999.9999999999998863 ) ;
#212 = LINE ( 'NONE', #140, #142 ) ;
#213 = CC_DESIGN_PERSON_AND_ORGANIZATION_ASSIGNMENT ( #285, #275, ( #102 ) ) ;
#214 = LOCAL_TIME ( 10, 34, 42.00000000000000000, #330 ) ;
#215 = APPROVAL_PERSON_ORGANIZATION ( #297, #124, #190 ) ;
#216 = CARTESIAN_POINT ( 'NONE',  ( 14.14213562373104693, -1.818507718094545588E-15, -10.00000000000001066 ) ) ;
#217 = PERSON_AND_ORGANIZATION ( #110, #244 ) ;
#218 = DIRECTION ( 'NONE',  ( -0.7071067811865515695, 0.7071067811865435759, 0.0000000000000000000 ) ) ;
#219 = PLANE ( 'NONE',  #283 ) ;
#220 = ADVANCED_FACE ( 'NONE', ( #23 ), #219, .F. ) ;
#221 = AXIS2_PLACEMENT_3D ( 'NONE', #152, #175, #228 ) ;
#222 = CARTESIAN_POINT ( 'NONE',  ( 14.14213562373104693, -1.818507718094545588E-15, 10.00000000000001066 ) ) ;
#223 = APPROVAL_ROLE ( '' ) ;
#224 = EDGE_CURVE ( 'NONE', #53, #337, #358, .T. ) ;
#225 = CONTEXT_DEPENDENT_SHAPE_REPRESENTATION ( #296, #10 ) ;
#226 = COORDINATED_UNIVERSAL_TIME_OFFSET ( 5, 0, .BEHIND. ) ;
#227 = CARTESIAN_POINT ( 'NONE',  ( 8.700747372918609639E-17, 14.14213562373087640, 10.00000000000001066 ) ) ;
#228 = DIRECTION ( 'NONE',  ( 1.000000000000000000, 0.0000000000000000000, 0.0000000000000000000 ) ) ;
#229 = DIRECTION ( 'NONE',  ( 1.000000000000000000, 0.0000000000000000000, 0.0000000000000000000 ) ) ;
#230 = EDGE_CURVE ( 'NONE', #337, #101, #292, .T. ) ;
#231 = FACE_OUTER_BOUND ( 'NONE', #35, .T. ) ;
#232 = CC_DESIGN_SECURITY_CLASSIFICATION ( #46, ( #307 ) ) ;
#233 = AXIS2_PLACEMENT_3D ( 'NONE', #141, #334, #168 ) ;
#234 = COORDINATED_UNIVERSAL_TIME_OFFSET ( 5, 0, .BEHIND. ) ;
#235 = SHAPE_DEFINITION_REPRESENTATION ( #192, #164 ) ;
#236 = APPROVAL ( #203, 'UNSPECIFIED' ) ;
#237 = PERSON_AND_ORGANIZATION ( #110, #244 ) ;
#238 = VECTOR ( 'NONE', #92, 1000.000000000000000 ) ;
#239 = ORIENTED_EDGE ( 'NONE', *, *, #77, .F. ) ;
#240 = CC_DESIGN_PERSON_AND_ORGANIZATION_ASSIGNMENT ( #217, #86, ( #17 ) ) ;
#241 = APPROVAL_DATE_TIME ( #14, #87 ) ;
#242 = ORIENTED_EDGE ( 'NONE', *, *, #121, .F. ) ;
#243 = DATE_AND_TIME ( #265, #33 ) ;
#244 = ORGANIZATION ( 'UNSPECIFIED', 'UNSPECIFIED', '' ) ;
#245 = VERTEX_POINT ( 'NONE', #344 ) ;
#246 = DIRECTION ( 'NONE',  ( 0.0000000000000000000, 0.0000000000000000000, 1.000000000000000000 ) ) ;
#247 = SECURITY_CLASSIFICATION_LEVEL ( 'unclassified' ) ;
#248 = DIRECTION ( 'NONE',  ( 0.0000000000000000000, 0.0000000000000000000, 1.000000000000000000 ) ) ;
#249 = PRODUCT_RELATED_PRODUCT_CATEGORY ( 'detail', '', ( #144 ) ) ;
#250 = CARTESIAN_POINT ( 'NONE',  ( -14.14213562373104693, 3.009265538105056020E-32, 10.00000000000001066 ) ) ;
#251 = APPROVAL ( #306, 'UNSPECIFIED' ) ;
#252 = ORGANIZATION ( 'NAUO-ORG1', 'UNSPECIFIED', 'UNSPECIFIED' ) ;
#253 = CC_DESIGN_DATE_AND_TIME_ASSIGNMENT ( #243, #196, ( #102 ) ) ;
#254 = DIRECTION ( 'NONE',  ( 5.551115123125782702E-17, 0.0000000000000000000, 1.000000000000000222 ) ) ;
#255 = FACE_OUTER_BOUND ( 'NONE', #80, .T. ) ;
#256 = ORIENTED_EDGE ( 'NONE', *, *, #230, .F. ) ;
#257 = DIRECTION ( 'NONE',  ( -0.7071067811865515695, -0.7071067811865435759, 0.0000000000000000000 ) ) ;
#258 = APPROVAL_STATUS ( 'not_yet_approved' ) ;
#259 = DATE_AND_TIME ( #18, #48 ) ;
#260 = SECURITY_CLASSIFICATION ( '', '', #154 ) ;
#261 = ORIENTED_EDGE ( 'NONE', *, *, #135, .F. ) ;
#262 = SECURITY_CLASSIFICATION ( '', '', #188 ) ;
#263 = PERSON_AND_ORGANIZATION_ROLE ( 'classification_officer' ) ;
#264 = APPROVAL_STATUS ( 'not_yet_approved' ) ;
#265 = CALENDAR_DATE ( 2020, 29, 10 ) ;
#266 = APPROVAL_DATE_TIME ( #63, #124 ) ;
#267 = ORIENTED_EDGE ( 'NONE', *, *, #160, .T. ) ;
#268 = SECURITY_CLASSIFICATION ( '', '', #348 ) ;
#269 = DATE_AND_TIME ( #180, #321 ) ;
#270 = CC_DESIGN_PERSON_AND_ORGANIZATION_ASSIGNMENT ( #2, #107, ( #307 ) ) ;
#271 = PERSON_AND_ORGANIZATION_ROLE ( 'creator' ) ;
#272 = CC_DESIGN_DATE_AND_TIME_ASSIGNMENT ( #4, #273, ( #67 ) ) ;
#273 = DATE_TIME_ROLE ( 'creation_date' ) ;
#274 = PERSON_AND_ORGANIZATION ( #110, #244 ) ;
#275 = PERSON_AND_ORGANIZATION_ROLE ( 'creator' ) ;
#276 = DIRECTION ( 'NONE',  ( 0.0000000000000000000, -0.0000000000000000000, -1.000000000000000000 ) ) ;
#277 = CONTEXT_DEPENDENT_SHAPE_REPRESENTATION ( #128, #39 ) ;
#278 = PLANE ( 'NONE',  #30 ) ;
#279 = DATE_AND_TIME ( #289, #148 ) ;
#280 = PERSON_AND_ORGANIZATION_ROLE ( 'design_supplier' ) ;
#281 = DATE_AND_TIME ( #73, #8 ) ;
#282 = CARTESIAN_POINT ( 'NONE',  ( 8.700747372918609639E-17, 14.14213562373087640, 10.00000000000001066 ) ) ;
#283 = AXIS2_PLACEMENT_3D ( 'NONE', #250, #89, #339 ) ;
#284 = DATE_TIME_ROLE ( 'classification_date' ) ;
#285 = PERSON_AND_ORGANIZATION ( #110, #244 ) ;
#286 = PRODUCT_DEFINITION_SHAPE ( 'NONE', 'NONE',  #102 ) ;
#287 = CARTESIAN_POINT ( 'NONE',  ( 0.0000000000000000000, 0.0000000000000000000, -10.00000000000001066 ) ) ;
#288 = PLANE ( 'NONE',  #326 ) ;
#289 = CALENDAR_DATE ( 2020, 29, 10 ) ;
#290 = PERSON_AND_ORGANIZATION_ROLE ( 'classification_officer' ) ;
#291 = APPROVAL ( #258, 'UNKNOWN' ) ;
#292 = LINE ( 'NONE', #204, #187 ) ;
#293 = ORIENTED_EDGE ( 'NONE', *, *, #77, .T. ) ;
#294 = CC_DESIGN_PERSON_AND_ORGANIZATION_ASSIGNMENT ( #131, #169, ( #262 ) ) ;
#295 = COORDINATED_UNIVERSAL_TIME_OFFSET ( 5, 0, .BEHIND. ) ;
#296 =( REPRESENTATION_RELATIONSHIP ('NONE','NONE', #164, #42 ) REPRESENTATION_RELATIONSHIP_WITH_TRANSFORMATION ( #329 )SHAPE_REPRESENTATION_RELATIONSHIP( ) );
#297 = PERSON_AND_ORGANIZATION ( #110, #244 ) ;
#298 = CC_DESIGN_PERSON_AND_ORGANIZATION_ASSIGNMENT ( #350, #75, ( #156 ) ) ;
#299 = FACE_OUTER_BOUND ( 'NONE', #94, .T. ) ;
#300 = CC_DESIGN_APPROVAL ( #87, ( #262 ) ) ;
#301 = APPROVAL_PERSON_ORGANIZATION ( #13, #291, #223 ) ;
#302 = EDGE_CURVE ( 'NONE', #15, #132, #311, .T. ) ;
#303 = VECTOR ( 'NONE', #82, 1000.000000000000000 ) ;
#304 = CC_DESIGN_DATE_AND_TIME_ASSIGNMENT ( #184, #157, ( #268 ) ) ;
#305 = DIRECTION ( 'NONE',  ( -0.7071067811865435759, -0.7071067811865515695, 0.0000000000000000000 ) ) ;
#306 = APPROVAL_STATUS ( 'not_yet_approved' ) ;
#307 = PRODUCT_DEFINITION_FORMATION_WITH_SPECIFIED_SOURCE ( 'ANY', '', #144, .NOT_KNOWN. ) ;
#308 = CARTESIAN_POINT ( 'NONE',  ( -14.14213562373104693, 3.009265538105056020E-32, 10.00000000000001066 ) ) ;
#309 = APPLICATION_PROTOCOL_DEFINITION ( 'international standard', 'config_control_design', 1994, #111 ) ;
#310 = DATE_AND_TIME ( #49, #19 ) ;
#311 = LINE ( 'NONE', #227, #211 ) ;
#312 = CARTESIAN_POINT ( 'NONE',  ( 8.700747372918609639E-17, 14.14213562373087640, 10.00000000000001066 ) ) ;
#313 = AXIS2_PLACEMENT_3D ( 'NONE', #3, #117, #314 ) ;
#314 = DIRECTION ( 'NONE',  ( 1.000000000000000000, 0.0000000000000000000, 0.0000000000000000000 ) ) ;
#315 =( LENGTH_UNIT ( ) NAMED_UNIT ( * ) SI_UNIT ( .MILLI., .METRE. ) );
#316 = CALENDAR_DATE ( 2020, 29, 10 ) ;
#317 = CLOSED_SHELL ( 'NONE', ( #150, #171, #220, #83, #336 ) ) ;
#318 = CC_DESIGN_PERSON_AND_ORGANIZATION_ASSIGNMENT ( #125, #290, ( #260 ) ) ;
#319 = APPROVAL ( #147, 'UNSPECIFIED' ) ;
#320 = MANIFOLD_SOLID_BREP ( 'Boss-Extrude1', #317 ) ;
#321 = LOCAL_TIME ( 10, 34, 42.00000000000000000, #172 ) ;
#322 = LINE ( 'NONE', #216, #303 ) ;
#323 = EDGE_CURVE ( 'NONE', #15, #53, #159, .T. ) ;
#324 = CC_DESIGN_PERSON_AND_ORGANIZATION_ASSIGNMENT ( #13, #263, ( #268 ) ) ;
#325 = CALENDAR_DATE ( 2020, 29, 10 ) ;
#326 = AXIS2_PLACEMENT_3D ( 'NONE', #287, #90, #200 ) ;
#327 = CC_DESIGN_DATE_AND_TIME_ASSIGNMENT ( #341, #284, ( #262 ) ) ;
#328 =( NAMED_UNIT ( * ) SI_UNIT ( $, .STERADIAN. ) SOLID_ANGLE_UNIT ( ) );
#329 = ITEM_DEFINED_TRANSFORMATION ( 'NONE', 'NONE', #221,  #182 ) ;
#330 = COORDINATED_UNIVERSAL_TIME_OFFSET ( 5, 0, .BEHIND. ) ;
#331 = EDGE_LOOP ( 'NONE', ( #9, #242, #351, #194 ) ) ;
#332 = CARTESIAN_POINT ( 'NONE',  ( 8.700747372918609639E-17, 14.14213562373087640, -10.00000000000001066 ) ) ;
#333 = CARTESIAN_POINT ( 'NONE',  ( 0.0000000000000000000, 0.0000000000000000000, 10.00000000000001066 ) ) ;
#334 = DIRECTION ( 'NONE',  ( 0.7071067811865434649, -0.7071067811865515695, 0.0000000000000000000 ) ) ;
#335 = APPROVAL_PERSON_ORGANIZATION ( #274, #87, #25 ) ;
#336 = ADVANCED_FACE ( 'NONE', ( #255 ), #288, .F. ) ;
#337 = VERTEX_POINT ( 'NONE', #6 ) ;
#338 = APPROVAL_STATUS ( 'not_yet_approved' ) ;
#339 = DIRECTION ( 'NONE',  ( -1.000000000000000000, 6.429395695523596264E-17, 0.0000000000000000000 ) ) ;
#340 = VECTOR ( 'NONE', #276, 1000.000000000000000 ) ;
#341 = DATE_AND_TIME ( #105, #214 ) ;
#342 = APPROVAL_PERSON_ORGANIZATION ( #79, #236, #41 ) ;
#343 = ORIENTED_EDGE ( 'NONE', *, *, #183, .F. ) ;
#344 = CARTESIAN_POINT ( 'NONE',  ( 14.14213562373104693, -1.818507718094545588E-15, 10.00000000000001066 ) ) ;
#345 = CC_DESIGN_APPROVAL ( #291, ( #268 ) ) ;
#346 = CALENDAR_DATE ( 2020, 29, 10 ) ;
#347 = DESIGN_CONTEXT ( 'detailed design', #173, 'design' ) ;
#348 = SECURITY_CLASSIFICATION_LEVEL ( 'unclassified' ) ;
#349 = COORDINATED_UNIVERSAL_TIME_OFFSET ( 5, 0, .BEHIND. ) ;
#350 = PERSON_AND_ORGANIZATION ( #110, #244 ) ;
#351 = ORIENTED_EDGE ( 'NONE', *, *, #302, .F. ) ;
#352 =( GEOMETRIC_REPRESENTATION_CONTEXT ( 3 ) GLOBAL_UNCERTAINTY_ASSIGNED_CONTEXT ( ( #16 ) ) GLOBAL_UNIT_ASSIGNED_CONTEXT ( ( #198, #115, #176 ) ) REPRESENTATION_CONTEXT ( 'NONE', 'WORKASPACE' ) );
#353 = CC_DESIGN_DATE_AND_TIME_ASSIGNMENT ( #279, #208, ( #260 ) ) ;
#354 = VECTOR ( 'NONE', #218, 1000.000000000000000 ) ;
#355 = DESIGN_CONTEXT ( 'detailed design', #60, 'design' ) ;
#356 = CALENDAR_DATE ( 2020, 29, 10 ) ;
#357 = LOCAL_TIME ( 10, 34, 42.00000000000000000, #151 ) ;
#358 = LINE ( 'NONE', #174, #99 ) ;
#359 = CARTESIAN_POINT ( 'NONE',  ( 14.14213562373104693, -1.818507718094545588E-15, 10.00000000000001066 ) ) ;
#360 = NEXT_ASSEMBLY_USAGE_OCCURRENCE ( 'NAUO1', ' ', ' ', #67, #102, $ ) ;
#361 = NEXT_ASSEMBLY_USAGE_OCCURRENCE ( 'NAUO2', ' ', ' ', #67, #102, $ ) ;
ENDSEC;
END-ISO-10303-21;
