ISO-10303-21;
HEADER;
FILE_DESCRIPTION (( 'STEP AP203' ),
    '1' );
FILE_NAME ('47193_65872.step',
    '2018-01-22T13:12:04',
    ( '' ),
    ( '' ),
    'SwSTEP 2.0',
    'SolidWorks 2016',
    '' );
FILE_SCHEMA (( 'CONFIG_CONTROL_DESIGN' ));
ENDSEC;

DATA;
#1 = ORIENTED_EDGE ( 'NONE', *, *, #165, .F. ) ;
#2 = DIRECTION ( 'NONE',  ( 0.0000000000000000000, 0.0000000000000000000, 1.000000000000000000 ) ) ;
#3 = DIRECTION ( 'NONE',  ( 1.000000000000000000, 0.0000000000000000000, 0.0000000000000000000 ) ) ;
#4 = PERSON_AND_ORGANIZATION ( #13, #59 ) ;
#5 = PRODUCT_DEFINITION_SHAPE ( 'NONE', 'NONE',  #127 ) ;
#6 = LINE ( 'NONE', #20, #137 ) ;
#7 = APPROVAL_PERSON_ORGANIZATION ( #80, #16, #44 ) ;
#8 = CIRCLE ( 'NONE', #65, 6.249999999999998200 ) ;
#9 = LOCAL_TIME ( 8, 12, 4.000000000000000000, #133 ) ;
#10 = AXIS2_PLACEMENT_3D ( 'NONE', #17, #172, #67 ) ;
#11 = PERSON_AND_ORGANIZATION_ROLE ( 'creator' ) ;
#12 = MECHANICAL_CONTEXT ( 'NONE', #53, 'mechanical' ) ;
#13 = PERSON ( 'UNSPECIFIED', 'UNSPECIFIED', 'UNSPECIFIED', ('UNSPECIFIED'), ('UNSPECIFIED'), ('UNSPECIFIED') ) ;
#14 = VERTEX_POINT ( 'NONE', #102 ) ;
#15 = DIRECTION ( 'NONE',  ( 0.0000000000000000000, 0.0000000000000000000, 1.000000000000000000 ) ) ;
#16 = APPROVAL ( #109, 'UNSPECIFIED' ) ;
#17 = CARTESIAN_POINT ( 'NONE',  ( 0.0000000000000000000, 0.0000000000000000000, 0.0000000000000000000 ) ) ;
#18 = CIRCLE ( 'NONE', #108, 6.249999999999998200 ) ;
#19 = DIRECTION ( 'NONE',  ( 0.0000000000000000000, 0.0000000000000000000, 1.000000000000000000 ) ) ;
#20 = CARTESIAN_POINT ( 'NONE',  ( -6.249999999999998200, 7.654042494670955600E-016, -1.500000000000000000 ) ) ;
#21 = ADVANCED_FACE ( 'NONE', ( #23 ), #52, .T. ) ;
#22 = ORIENTED_EDGE ( 'NONE', *, *, #132, .F. ) ;
#23 = FACE_OUTER_BOUND ( 'NONE', #76, .T. ) ;
#24 = ORIENTED_EDGE ( 'NONE', *, *, #110, .T. ) ;
#25 = PERSON_AND_ORGANIZATION_ROLE ( 'design_supplier' ) ;
#26 = SHAPE_DEFINITION_REPRESENTATION ( #5, #142 ) ;
#27 = SECURITY_CLASSIFICATION ( '', '', #124 ) ;
#28 = APPLICATION_CONTEXT ( 'configuration controlled 3d designs of mechanical parts and assemblies' ) ;
#29 = PRODUCT ( '47193_65872', '47193_65872', '', ( #12 ) ) ;
#30 = CYLINDRICAL_SURFACE ( 'NONE', #56, 6.249999999999998200 ) ;
#31 = AXIS2_PLACEMENT_3D ( 'NONE', #84, #155, #88 ) ;
#32 = ORIENTED_EDGE ( 'NONE', *, *, #165, .T. ) ;
#33 = COORDINATED_UNIVERSAL_TIME_OFFSET ( 5, 0, .BEHIND. ) ;
#34 = DIRECTION ( 'NONE',  ( 0.0000000000000000000, 0.0000000000000000000, 1.000000000000000000 ) ) ;
#35 = CC_DESIGN_DATE_AND_TIME_ASSIGNMENT ( #73, #125, ( #127 ) ) ;
#36 = DATE_AND_TIME ( #163, #95 ) ;
#37 = CALENDAR_DATE ( 2018, 22, 1 ) ;
#38 = DIRECTION ( 'NONE',  ( 0.0000000000000000000, 0.0000000000000000000, 1.000000000000000000 ) ) ;
#39 = FACE_OUTER_BOUND ( 'NONE', #112, .T. ) ;
#40 = DATE_AND_TIME ( #37, #96 ) ;
#41 = ADVANCED_FACE ( 'NONE', ( #39 ), #118, .T. ) ;
#42 = AXIS2_PLACEMENT_3D ( 'NONE', #121, #19, #74 ) ;
#43 = UNCERTAINTY_MEASURE_WITH_UNIT (LENGTH_MEASURE( 1.000000000000000100E-005 ), #157, 'distance_accuracy_value', 'NONE');
#44 = APPROVAL_ROLE ( '' ) ;
#45 = PERSON_AND_ORGANIZATION ( #13, #59 ) ;
#46 = APPROVAL_STATUS ( 'not_yet_approved' ) ;
#47 = LINE ( 'NONE', #166, #60 ) ;
#48 = CARTESIAN_POINT ( 'NONE',  ( -6.249999999999998200, 7.654042494670955600E-016, -1.500000000000000000 ) ) ;
#49 = DESIGN_CONTEXT ( 'detailed design', #28, 'design' ) ;
#50 = CARTESIAN_POINT ( 'NONE',  ( 0.0000000000000000000, 0.0000000000000000000, -1.500000000000000000 ) ) ;
#51 = AXIS2_PLACEMENT_3D ( 'NONE', #119, #34, #130 ) ;
#52 = CYLINDRICAL_SURFACE ( 'NONE', #62, 6.249999999999998200 ) ;
#53 = APPLICATION_CONTEXT ( 'configuration controlled 3d designs of mechanical parts and assemblies' ) ;
#54 = PERSON_AND_ORGANIZATION_ROLE ( 'creator' ) ;
#55 = APPROVAL_DATE_TIME ( #40, #131 ) ;
#56 = AXIS2_PLACEMENT_3D ( 'NONE', #159, #15, #117 ) ;
#57 = EDGE_LOOP ( 'NONE', ( #101, #87 ) ) ;
#58 = DATE_TIME_ROLE ( 'classification_date' ) ;
#59 = ORGANIZATION ( 'UNSPECIFIED', 'UNSPECIFIED', '' ) ;
#60 = VECTOR ( 'NONE', #38, 1000.000000000000000 ) ;
#61 = LOCAL_TIME ( 8, 12, 4.000000000000000000, #115 ) ;
#62 = AXIS2_PLACEMENT_3D ( 'NONE', #129, #116, #152 ) ;
#63 = EDGE_LOOP ( 'NONE', ( #22, #83, #24, #85 ) ) ;
#64 = ORIENTED_EDGE ( 'NONE', *, *, #132, .T. ) ;
#65 = AXIS2_PLACEMENT_3D ( 'NONE', #164, #86, #3 ) ;
#66 = PERSON_AND_ORGANIZATION ( #13, #59 ) ;
#67 = DIRECTION ( 'NONE',  ( 1.000000000000000000, 0.0000000000000000000, 0.0000000000000000000 ) ) ;
#68 = DATE_AND_TIME ( #136, #9 ) ;
#69 = VERTEX_POINT ( 'NONE', #139 ) ;
#70 = PERSON_AND_ORGANIZATION ( #13, #59 ) ;
#71 = PERSON_AND_ORGANIZATION_ROLE ( 'classification_officer' ) ;
#72 = CC_DESIGN_PERSON_AND_ORGANIZATION_ASSIGNMENT ( #151, #25, ( #175 ) ) ;
#73 = DATE_AND_TIME ( #168, #61 ) ;
#74 = DIRECTION ( 'NONE',  ( 1.000000000000000000, 0.0000000000000000000, 0.0000000000000000000 ) ) ;
#75 =( GEOMETRIC_REPRESENTATION_CONTEXT ( 3 ) GLOBAL_UNCERTAINTY_ASSIGNED_CONTEXT ( ( #43 ) ) GLOBAL_UNIT_ASSIGNED_CONTEXT ( ( #157, #144, #158 ) ) REPRESENTATION_CONTEXT ( 'NONE', 'WORKASPACE' ) );
#76 = EDGE_LOOP ( 'NONE', ( #173, #64, #1, #150 ) ) ;
#77 = CC_DESIGN_APPROVAL ( #131, ( #27 ) ) ;
#78 = CIRCLE ( 'NONE', #51, 6.249999999999998200 ) ;
#79 = PRODUCT_RELATED_PRODUCT_CATEGORY ( 'detail', '', ( #29 ) ) ;
#80 = PERSON_AND_ORGANIZATION ( #13, #59 ) ;
#81 = PERSON_AND_ORGANIZATION_ROLE ( 'design_owner' ) ;
#82 = APPLICATION_PROTOCOL_DEFINITION ( 'international standard', 'config_control_design', 1994, #53 ) ;
#83 = ORIENTED_EDGE ( 'NONE', *, *, #94, .T. ) ;
#84 = CARTESIAN_POINT ( 'NONE',  ( 0.0000000000000000000, 0.0000000000000000000, -1.500000000000000000 ) ) ;
#85 = ORIENTED_EDGE ( 'NONE', *, *, #105, .F. ) ;
#86 = DIRECTION ( 'NONE',  ( 0.0000000000000000000, 0.0000000000000000000, 1.000000000000000000 ) ) ;
#87 = ORIENTED_EDGE ( 'NONE', *, *, #94, .F. ) ;
#88 = DIRECTION ( 'NONE',  ( 1.000000000000000000, 0.0000000000000000000, -0.0000000000000000000 ) ) ;
#89 = ADVANCED_FACE ( 'NONE', ( #148 ), #126, .F. ) ;
#90 = CC_DESIGN_DATE_AND_TIME_ASSIGNMENT ( #68, #58, ( #27 ) ) ;
#91 = PERSON_AND_ORGANIZATION ( #13, #59 ) ;
#92 = APPROVAL_PERSON_ORGANIZATION ( #70, #131, #169 ) ;
#93 = CC_DESIGN_PERSON_AND_ORGANIZATION_ASSIGNMENT ( #4, #71, ( #27 ) ) ;
#94 = EDGE_CURVE ( 'NONE', #170, #104, #18, .T. ) ;
#95 = LOCAL_TIME ( 8, 12, 4.000000000000000000, #174 ) ;
#96 = LOCAL_TIME ( 8, 12, 4.000000000000000000, #153 ) ;
#97 = APPLICATION_PROTOCOL_DEFINITION ( 'international standard', 'config_control_design', 1994, #28 ) ;
#98 = CC_DESIGN_APPROVAL ( #16, ( #175 ) ) ;
#99 = LOCAL_TIME ( 8, 12, 4.000000000000000000, #33 ) ;
#100 = CC_DESIGN_SECURITY_CLASSIFICATION ( #27, ( #175 ) ) ;
#101 = ORIENTED_EDGE ( 'NONE', *, *, #162, .F. ) ;
#102 = CARTESIAN_POINT ( 'NONE',  ( 6.249999999999998200, 0.0000000000000000000, 0.0000000000000000000 ) ) ;
#103 = ORIENTED_EDGE ( 'NONE', *, *, #105, .T. ) ;
#104 = VERTEX_POINT ( 'NONE', #123 ) ;
#105 = EDGE_CURVE ( 'NONE', #69, #14, #114, .T. ) ;
#106 = PERSON_AND_ORGANIZATION ( #13, #59 ) ;
#107 = CC_DESIGN_PERSON_AND_ORGANIZATION_ASSIGNMENT ( #91, #11, ( #175 ) ) ;
#108 = AXIS2_PLACEMENT_3D ( 'NONE', #50, #147, #134 ) ;
#109 = APPROVAL_STATUS ( 'not_yet_approved' ) ;
#110 = EDGE_CURVE ( 'NONE', #104, #14, #47, .T. ) ;
#111 = MANIFOLD_SOLID_BREP ( 'Boss-Extrude1', #122 ) ;
#112 = EDGE_LOOP ( 'NONE', ( #32, #103 ) ) ;
#113 = APPROVAL_ROLE ( '' ) ;
#114 = CIRCLE ( 'NONE', #42, 6.249999999999998200 ) ;
#115 = COORDINATED_UNIVERSAL_TIME_OFFSET ( 5, 0, .BEHIND. ) ;
#116 = DIRECTION ( 'NONE',  ( 0.0000000000000000000, 0.0000000000000000000, 1.000000000000000000 ) ) ;
#117 = DIRECTION ( 'NONE',  ( 1.000000000000000000, 0.0000000000000000000, 0.0000000000000000000 ) ) ;
#118 = PLANE ( 'NONE',  #135 ) ;
#119 = CARTESIAN_POINT ( 'NONE',  ( 0.0000000000000000000, 0.0000000000000000000, 0.0000000000000000000 ) ) ;
#120 = FACE_OUTER_BOUND ( 'NONE', #63, .T. ) ;
#121 = CARTESIAN_POINT ( 'NONE',  ( 0.0000000000000000000, 0.0000000000000000000, 0.0000000000000000000 ) ) ;
#122 = CLOSED_SHELL ( 'NONE', ( #21, #149, #89, #41 ) ) ;
#123 = CARTESIAN_POINT ( 'NONE',  ( 6.249999999999998200, 0.0000000000000000000, -1.500000000000000000 ) ) ;
#124 = SECURITY_CLASSIFICATION_LEVEL ( 'unclassified' ) ;
#125 = DATE_TIME_ROLE ( 'creation_date' ) ;
#126 = PLANE ( 'NONE',  #31 ) ;
#127 = PRODUCT_DEFINITION ( 'UNKNOWN', '', #175, #49 ) ;
#128 = DIRECTION ( 'NONE',  ( 1.000000000000000000, 0.0000000000000000000, -0.0000000000000000000 ) ) ;
#129 = CARTESIAN_POINT ( 'NONE',  ( 0.0000000000000000000, 0.0000000000000000000, -1.500000000000000000 ) ) ;
#130 = DIRECTION ( 'NONE',  ( 1.000000000000000000, 0.0000000000000000000, 0.0000000000000000000 ) ) ;
#131 = APPROVAL ( #156, 'UNSPECIFIED' ) ;
#132 = EDGE_CURVE ( 'NONE', #170, #69, #6, .T. ) ;
#133 = COORDINATED_UNIVERSAL_TIME_OFFSET ( 5, 0, .BEHIND. ) ;
#134 = DIRECTION ( 'NONE',  ( 1.000000000000000000, 0.0000000000000000000, 0.0000000000000000000 ) ) ;
#135 = AXIS2_PLACEMENT_3D ( 'NONE', #141, #143, #128 ) ;
#136 = CALENDAR_DATE ( 2018, 22, 1 ) ;
#137 = VECTOR ( 'NONE', #2, 1000.000000000000000 ) ;
#138 = DATE_AND_TIME ( #140, #99 ) ;
#139 = CARTESIAN_POINT ( 'NONE',  ( -6.249999999999998200, 7.654042494670955600E-016, 0.0000000000000000000 ) ) ;
#140 = CALENDAR_DATE ( 2018, 22, 1 ) ;
#141 = CARTESIAN_POINT ( 'NONE',  ( 0.0000000000000000000, 0.0000000000000000000, 0.0000000000000000000 ) ) ;
#142 = ADVANCED_BREP_SHAPE_REPRESENTATION ( '47193_65872', ( #111, #10 ), #75 ) ;
#143 = DIRECTION ( 'NONE',  ( 0.0000000000000000000, 0.0000000000000000000, 1.000000000000000000 ) ) ;
#144 =( NAMED_UNIT ( * ) PLANE_ANGLE_UNIT ( ) SI_UNIT ( $, .RADIAN. ) );
#145 = APPROVAL ( #46, 'UNSPECIFIED' ) ;
#146 = APPROVAL_DATE_TIME ( #138, #16 ) ;
#147 = DIRECTION ( 'NONE',  ( 0.0000000000000000000, 0.0000000000000000000, 1.000000000000000000 ) ) ;
#148 = FACE_OUTER_BOUND ( 'NONE', #57, .T. ) ;
#149 = ADVANCED_FACE ( 'NONE', ( #120 ), #30, .T. ) ;
#150 = ORIENTED_EDGE ( 'NONE', *, *, #110, .F. ) ;
#151 = PERSON_AND_ORGANIZATION ( #13, #59 ) ;
#152 = DIRECTION ( 'NONE',  ( 1.000000000000000000, 0.0000000000000000000, 0.0000000000000000000 ) ) ;
#153 = COORDINATED_UNIVERSAL_TIME_OFFSET ( 5, 0, .BEHIND. ) ;
#154 = CC_DESIGN_APPROVAL ( #145, ( #127 ) ) ;
#155 = DIRECTION ( 'NONE',  ( 0.0000000000000000000, 0.0000000000000000000, 1.000000000000000000 ) ) ;
#156 = APPROVAL_STATUS ( 'not_yet_approved' ) ;
#157 =( LENGTH_UNIT ( ) NAMED_UNIT ( * ) SI_UNIT ( .MILLI., .METRE. ) );
#158 =( NAMED_UNIT ( * ) SI_UNIT ( $, .STERADIAN. ) SOLID_ANGLE_UNIT ( ) );
#159 = CARTESIAN_POINT ( 'NONE',  ( 0.0000000000000000000, 0.0000000000000000000, -1.500000000000000000 ) ) ;
#160 = APPROVAL_DATE_TIME ( #36, #145 ) ;
#161 = CC_DESIGN_PERSON_AND_ORGANIZATION_ASSIGNMENT ( #106, #54, ( #127 ) ) ;
#162 = EDGE_CURVE ( 'NONE', #104, #170, #8, .T. ) ;
#163 = CALENDAR_DATE ( 2018, 22, 1 ) ;
#164 = CARTESIAN_POINT ( 'NONE',  ( 0.0000000000000000000, 0.0000000000000000000, -1.500000000000000000 ) ) ;
#165 = EDGE_CURVE ( 'NONE', #14, #69, #78, .T. ) ;
#166 = CARTESIAN_POINT ( 'NONE',  ( 6.249999999999998200, 0.0000000000000000000, -1.500000000000000000 ) ) ;
#167 = CC_DESIGN_PERSON_AND_ORGANIZATION_ASSIGNMENT ( #45, #81, ( #29 ) ) ;
#168 = CALENDAR_DATE ( 2018, 22, 1 ) ;
#169 = APPROVAL_ROLE ( '' ) ;
#170 = VERTEX_POINT ( 'NONE', #48 ) ;
#171 = APPROVAL_PERSON_ORGANIZATION ( #66, #145, #113 ) ;
#172 = DIRECTION ( 'NONE',  ( 0.0000000000000000000, 0.0000000000000000000, 1.000000000000000000 ) ) ;
#173 = ORIENTED_EDGE ( 'NONE', *, *, #162, .T. ) ;
#174 = COORDINATED_UNIVERSAL_TIME_OFFSET ( 5, 0, .BEHIND. ) ;
#175 = PRODUCT_DEFINITION_FORMATION_WITH_SPECIFIED_SOURCE ( 'ANY', '', #29, .NOT_KNOWN. ) ;
ENDSEC;
END-ISO-10303-21;
