ISO-10303-21;
HEADER;
FILE_DESCRIPTION (( 'STEP AP203' ),
    '1' );
FILE_NAME ('36992_37002.step',
    '2017-09-06T15:56:27',
    ( '' ),
    ( '' ),
    'SwSTEP 2.0',
    'SolidWorks 2016',
    '' );
FILE_SCHEMA (( 'CONFIG_CONTROL_DESIGN' ));
ENDSEC;

DATA;
#1 = EDGE_LOOP ( 'NONE', ( #87, #112, #44, #98 ) ) ;
#2 = AXIS2_PLACEMENT_3D ( 'NONE', #118, #134, #20 ) ;
#3 = LOCAL_TIME ( 11, 56, 27.00000000000000000, #124 ) ;
#4 = CLOSED_SHELL ( 'NONE', ( #149, #42, #174, #37 ) ) ;
#5 = APPROVAL_ROLE ( '' ) ;
#6 = FACE_OUTER_BOUND ( 'NONE', #1, .T. ) ;
#7 = PERSON_AND_ORGANIZATION_ROLE ( 'design_supplier' ) ;
#8 = APPROVAL_ROLE ( '' ) ;
#9 = PERSON_AND_ORGANIZATION ( #82, #146 ) ;
#10 = CC_DESIGN_PERSON_AND_ORGANIZATION_ASSIGNMENT ( #49, #132, ( #122 ) ) ;
#11 = VERTEX_POINT ( 'NONE', #51 ) ;
#12 = DIRECTION ( 'NONE',  ( 1.000000000000000000, 0.0000000000000000000, 0.0000000000000000000 ) ) ;
#13 = CALENDAR_DATE ( 2017, 6, 9 ) ;
#14 = CC_DESIGN_PERSON_AND_ORGANIZATION_ASSIGNMENT ( #111, #103, ( #170 ) ) ;
#15 = MANIFOLD_SOLID_BREP ( 'Boss-Extrude1', #4 ) ;
#16 = DIRECTION ( 'NONE',  ( 0.0000000000000000000, 0.0000000000000000000, 1.000000000000000000 ) ) ;
#17 = DATE_AND_TIME ( #28, #69 ) ;
#18 = AXIS2_PLACEMENT_3D ( 'NONE', #30, #26, #48 ) ;
#19 = APPROVAL ( #129, 'UNSPECIFIED' ) ;
#20 = DIRECTION ( 'NONE',  ( 1.000000000000000000, 0.0000000000000000000, 0.0000000000000000000 ) ) ;
#21 = DIRECTION ( 'NONE',  ( 1.000000000000000000, 0.0000000000000000000, 0.0000000000000000000 ) ) ;
#22 = PRODUCT_DEFINITION_SHAPE ( 'NONE', 'NONE',  #170 ) ;
#23 = ADVANCED_BREP_SHAPE_REPRESENTATION ( '36992_37002', ( #15, #18 ), #47 ) ;
#24 = CIRCLE ( 'NONE', #158, 12.50000000000000000 ) ;
#25 = EDGE_LOOP ( 'NONE', ( #110, #133, #142, #31 ) ) ;
#26 = DIRECTION ( 'NONE',  ( 0.0000000000000000000, 0.0000000000000000000, 1.000000000000000000 ) ) ;
#27 = PERSON_AND_ORGANIZATION ( #82, #146 ) ;
#28 = CALENDAR_DATE ( 2017, 6, 9 ) ;
#29 =( NAMED_UNIT ( * ) SI_UNIT ( $, .STERADIAN. ) SOLID_ANGLE_UNIT ( ) );
#30 = CARTESIAN_POINT ( 'NONE',  ( 0.0000000000000000000, 0.0000000000000000000, 0.0000000000000000000 ) ) ;
#31 = ORIENTED_EDGE ( 'NONE', *, *, #163, .F. ) ;
#32 = DATE_TIME_ROLE ( 'classification_date' ) ;
#33 = APPROVAL_STATUS ( 'not_yet_approved' ) ;
#34 = CC_DESIGN_PERSON_AND_ORGANIZATION_ASSIGNMENT ( #66, #162, ( #65 ) ) ;
#35 = VERTEX_POINT ( 'NONE', #97 ) ;
#36 = DIRECTION ( 'NONE',  ( 0.0000000000000000000, 0.0000000000000000000, 1.000000000000000000 ) ) ;
#37 = ADVANCED_FACE ( 'NONE', ( #121 ), #43, .F. ) ;
#38 = DIRECTION ( 'NONE',  ( 0.0000000000000000000, 0.0000000000000000000, 1.000000000000000000 ) ) ;
#39 = PRODUCT_RELATED_PRODUCT_CATEGORY ( 'detail', '', ( #65 ) ) ;
#40 = COORDINATED_UNIVERSAL_TIME_OFFSET ( 5, 0, .BEHIND. ) ;
#41 = DIRECTION ( 'NONE',  ( 1.000000000000000000, 0.0000000000000000000, -0.0000000000000000000 ) ) ;
#42 = ADVANCED_FACE ( 'NONE', ( #6 ), #160, .T. ) ;
#43 = PLANE ( 'NONE',  #125 ) ;
#44 = ORIENTED_EDGE ( 'NONE', *, *, #163, .T. ) ;
#45 = DIRECTION ( 'NONE',  ( -0.0000000000000000000, -0.0000000000000000000, -1.000000000000000000 ) ) ;
#46 = CC_DESIGN_APPROVAL ( #19, ( #56 ) ) ;
#47 =( GEOMETRIC_REPRESENTATION_CONTEXT ( 3 ) GLOBAL_UNCERTAINTY_ASSIGNED_CONTEXT ( ( #152 ) ) GLOBAL_UNIT_ASSIGNED_CONTEXT ( ( #159, #115, #29 ) ) REPRESENTATION_CONTEXT ( 'NONE', 'WORKASPACE' ) );
#48 = DIRECTION ( 'NONE',  ( 1.000000000000000000, 0.0000000000000000000, 0.0000000000000000000 ) ) ;
#49 = PERSON_AND_ORGANIZATION ( #82, #146 ) ;
#50 = EDGE_CURVE ( 'NONE', #70, #11, #167, .T. ) ;
#51 = CARTESIAN_POINT ( 'NONE',  ( -12.50000000000000000, 0.0000000000000000000, -1.000000000000000000 ) ) ;
#52 = CARTESIAN_POINT ( 'NONE',  ( 0.0000000000000000000, 0.0000000000000000000, 1.000000000000000000 ) ) ;
#53 = CARTESIAN_POINT ( 'NONE',  ( 12.50000000000000000, 1.530808498934191500E-015, -1.000000000000000000 ) ) ;
#54 = PERSON_AND_ORGANIZATION ( #82, #146 ) ;
#55 = COORDINATED_UNIVERSAL_TIME_OFFSET ( 5, 0, .BEHIND. ) ;
#56 = SECURITY_CLASSIFICATION ( '', '', #105 ) ;
#57 = DATE_AND_TIME ( #73, #145 ) ;
#58 = ORIENTED_EDGE ( 'NONE', *, *, #90, .F. ) ;
#59 = APPLICATION_PROTOCOL_DEFINITION ( 'international standard', 'config_control_design', 1994, #78 ) ;
#60 = CYLINDRICAL_SURFACE ( 'NONE', #156, 12.50000000000000000 ) ;
#61 = CC_DESIGN_DATE_AND_TIME_ASSIGNMENT ( #102, #32, ( #56 ) ) ;
#62 = LOCAL_TIME ( 11, 56, 27.00000000000000000, #40 ) ;
#63 = DIRECTION ( 'NONE',  ( 1.000000000000000000, 0.0000000000000000000, 0.0000000000000000000 ) ) ;
#64 = FACE_OUTER_BOUND ( 'NONE', #25, .T. ) ;
#65 = PRODUCT ( '36992_37002', '36992_37002', '', ( #92 ) ) ;
#66 = PERSON_AND_ORGANIZATION ( #82, #146 ) ;
#67 = CARTESIAN_POINT ( 'NONE',  ( 12.50000000000000000, 1.530808498934191500E-015, 1.000000000000000000 ) ) ;
#68 = DIRECTION ( 'NONE',  ( -0.0000000000000000000, -0.0000000000000000000, -1.000000000000000000 ) ) ;
#69 = LOCAL_TIME ( 11, 56, 27.00000000000000000, #55 ) ;
#70 = VERTEX_POINT ( 'NONE', #53 ) ;
#71 = VECTOR ( 'NONE', #45, 1000.000000000000000 ) ;
#72 = CC_DESIGN_PERSON_AND_ORGANIZATION_ASSIGNMENT ( #27, #7, ( #122 ) ) ;
#73 = CALENDAR_DATE ( 2017, 6, 9 ) ;
#74 = EDGE_CURVE ( 'NONE', #35, #147, #24, .T. ) ;
#75 = CC_DESIGN_APPROVAL ( #95, ( #170 ) ) ;
#76 = CIRCLE ( 'NONE', #2, 12.50000000000000000 ) ;
#77 = PERSON_AND_ORGANIZATION_ROLE ( 'classification_officer' ) ;
#78 = APPLICATION_CONTEXT ( 'configuration controlled 3d designs of mechanical parts and assemblies' ) ;
#79 = APPROVAL_PERSON_ORGANIZATION ( #164, #173, #5 ) ;
#80 = CARTESIAN_POINT ( 'NONE',  ( 0.0000000000000000000, 0.0000000000000000000, 1.000000000000000000 ) ) ;
#81 = AXIS2_PLACEMENT_3D ( 'NONE', #120, #38, #21 ) ;
#82 = PERSON ( 'UNSPECIFIED', 'UNSPECIFIED', 'UNSPECIFIED', ('UNSPECIFIED'), ('UNSPECIFIED'), ('UNSPECIFIED') ) ;
#83 = SHAPE_DEFINITION_REPRESENTATION ( #22, #23 ) ;
#84 = DIRECTION ( 'NONE',  ( 0.0000000000000000000, 0.0000000000000000000, 1.000000000000000000 ) ) ;
#85 = CARTESIAN_POINT ( 'NONE',  ( 0.0000000000000000000, 0.0000000000000000000, 1.000000000000000000 ) ) ;
#86 = EDGE_CURVE ( 'NONE', #147, #35, #136, .T. ) ;
#87 = ORIENTED_EDGE ( 'NONE', *, *, #154, .F. ) ;
#88 = PLANE ( 'NONE',  #123 ) ;
#89 = DATE_AND_TIME ( #109, #117 ) ;
#90 = EDGE_CURVE ( 'NONE', #11, #70, #76, .T. ) ;
#91 = DIRECTION ( 'NONE',  ( 1.000000000000000000, 0.0000000000000000000, -0.0000000000000000000 ) ) ;
#92 = MECHANICAL_CONTEXT ( 'NONE', #114, 'mechanical' ) ;
#93 = APPROVAL_ROLE ( '' ) ;
#94 = APPROVAL_STATUS ( 'not_yet_approved' ) ;
#95 = APPROVAL ( #94, 'UNSPECIFIED' ) ;
#96 = VECTOR ( 'NONE', #99, 1000.000000000000000 ) ;
#97 = CARTESIAN_POINT ( 'NONE',  ( -12.50000000000000000, 0.0000000000000000000, 1.000000000000000000 ) ) ;
#98 = ORIENTED_EDGE ( 'NONE', *, *, #90, .T. ) ;
#99 = DIRECTION ( 'NONE',  ( -0.0000000000000000000, -0.0000000000000000000, -1.000000000000000000 ) ) ;
#100 = CARTESIAN_POINT ( 'NONE',  ( 0.0000000000000000000, 0.0000000000000000000, 1.000000000000000000 ) ) ;
#101 = APPROVAL_PERSON_ORGANIZATION ( #166, #95, #93 ) ;
#102 = DATE_AND_TIME ( #13, #62 ) ;
#103 = PERSON_AND_ORGANIZATION_ROLE ( 'creator' ) ;
#104 = APPROVAL_DATE_TIME ( #57, #19 ) ;
#105 = SECURITY_CLASSIFICATION_LEVEL ( 'unclassified' ) ;
#106 = DATE_TIME_ROLE ( 'creation_date' ) ;
#107 = CARTESIAN_POINT ( 'NONE',  ( 0.0000000000000000000, 0.0000000000000000000, -1.000000000000000000 ) ) ;
#108 = DIRECTION ( 'NONE',  ( -0.0000000000000000000, -0.0000000000000000000, -1.000000000000000000 ) ) ;
#109 = CALENDAR_DATE ( 2017, 6, 9 ) ;
#110 = ORIENTED_EDGE ( 'NONE', *, *, #86, .F. ) ;
#111 = PERSON_AND_ORGANIZATION ( #82, #146 ) ;
#112 = ORIENTED_EDGE ( 'NONE', *, *, #74, .F. ) ;
#113 = FACE_OUTER_BOUND ( 'NONE', #169, .T. ) ;
#114 = APPLICATION_CONTEXT ( 'configuration controlled 3d designs of mechanical parts and assemblies' ) ;
#115 =( NAMED_UNIT ( * ) PLANE_ANGLE_UNIT ( ) SI_UNIT ( $, .RADIAN. ) );
#116 = APPROVAL_DATE_TIME ( #148, #95 ) ;
#117 = LOCAL_TIME ( 11, 56, 27.00000000000000000, #139 ) ;
#118 = CARTESIAN_POINT ( 'NONE',  ( 0.0000000000000000000, 0.0000000000000000000, -1.000000000000000000 ) ) ;
#119 = DIRECTION ( 'NONE',  ( 0.0000000000000000000, 0.0000000000000000000, 1.000000000000000000 ) ) ;
#120 = CARTESIAN_POINT ( 'NONE',  ( 0.0000000000000000000, 0.0000000000000000000, -1.000000000000000000 ) ) ;
#121 = FACE_OUTER_BOUND ( 'NONE', #157, .T. ) ;
#122 = PRODUCT_DEFINITION_FORMATION_WITH_SPECIFIED_SOURCE ( 'ANY', '', #65, .NOT_KNOWN. ) ;
#123 = AXIS2_PLACEMENT_3D ( 'NONE', #100, #16, #91 ) ;
#124 = COORDINATED_UNIVERSAL_TIME_OFFSET ( 5, 0, .BEHIND. ) ;
#125 = AXIS2_PLACEMENT_3D ( 'NONE', #107, #84, #41 ) ;
#126 = CC_DESIGN_PERSON_AND_ORGANIZATION_ASSIGNMENT ( #9, #77, ( #56 ) ) ;
#127 = LINE ( 'NONE', #153, #71 ) ;
#128 = DESIGN_CONTEXT ( 'detailed design', #78, 'design' ) ;
#129 = APPROVAL_STATUS ( 'not_yet_approved' ) ;
#130 = APPROVAL_DATE_TIME ( #89, #173 ) ;
#131 = LINE ( 'NONE', #141, #96 ) ;
#132 = PERSON_AND_ORGANIZATION_ROLE ( 'creator' ) ;
#133 = ORIENTED_EDGE ( 'NONE', *, *, #154, .T. ) ;
#134 = DIRECTION ( 'NONE',  ( 0.0000000000000000000, 0.0000000000000000000, 1.000000000000000000 ) ) ;
#135 = AXIS2_PLACEMENT_3D ( 'NONE', #80, #68, #175 ) ;
#136 = CIRCLE ( 'NONE', #172, 12.50000000000000000 ) ;
#137 = ORIENTED_EDGE ( 'NONE', *, *, #86, .T. ) ;
#138 = CC_DESIGN_SECURITY_CLASSIFICATION ( #56, ( #122 ) ) ;
#139 = COORDINATED_UNIVERSAL_TIME_OFFSET ( 5, 0, .BEHIND. ) ;
#140 = CARTESIAN_POINT ( 'NONE',  ( 0.0000000000000000000, 0.0000000000000000000, 1.000000000000000000 ) ) ;
#141 = CARTESIAN_POINT ( 'NONE',  ( 12.50000000000000000, 1.530808498934191500E-015, 1.000000000000000000 ) ) ;
#142 = ORIENTED_EDGE ( 'NONE', *, *, #50, .T. ) ;
#143 = ORIENTED_EDGE ( 'NONE', *, *, #74, .T. ) ;
#144 = ORIENTED_EDGE ( 'NONE', *, *, #50, .F. ) ;
#145 = LOCAL_TIME ( 11, 56, 27.00000000000000000, #168 ) ;
#146 = ORGANIZATION ( 'UNSPECIFIED', 'UNSPECIFIED', '' ) ;
#147 = VERTEX_POINT ( 'NONE', #67 ) ;
#148 = DATE_AND_TIME ( #155, #3 ) ;
#149 = ADVANCED_FACE ( 'NONE', ( #64 ), #60, .T. ) ;
#150 = CC_DESIGN_APPROVAL ( #173, ( #122 ) ) ;
#151 = DIRECTION ( 'NONE',  ( -1.000000000000000000, 0.0000000000000000000, 0.0000000000000000000 ) ) ;
#152 = UNCERTAINTY_MEASURE_WITH_UNIT (LENGTH_MEASURE( 1.000000000000000100E-005 ), #159, 'distance_accuracy_value', 'NONE');
#153 = CARTESIAN_POINT ( 'NONE',  ( -12.50000000000000000, 0.0000000000000000000, 1.000000000000000000 ) ) ;
#154 = EDGE_CURVE ( 'NONE', #147, #70, #131, .T. ) ;
#155 = CALENDAR_DATE ( 2017, 6, 9 ) ;
#156 = AXIS2_PLACEMENT_3D ( 'NONE', #140, #108, #151 ) ;
#157 = EDGE_LOOP ( 'NONE', ( #58, #144 ) ) ;
#158 = AXIS2_PLACEMENT_3D ( 'NONE', #52, #119, #63 ) ;
#159 =( LENGTH_UNIT ( ) NAMED_UNIT ( * ) SI_UNIT ( .MILLI., .METRE. ) );
#160 = CYLINDRICAL_SURFACE ( 'NONE', #135, 12.50000000000000000 ) ;
#161 = APPLICATION_PROTOCOL_DEFINITION ( 'international standard', 'config_control_design', 1994, #114 ) ;
#162 = PERSON_AND_ORGANIZATION_ROLE ( 'design_owner' ) ;
#163 = EDGE_CURVE ( 'NONE', #35, #11, #127, .T. ) ;
#164 = PERSON_AND_ORGANIZATION ( #82, #146 ) ;
#165 = CC_DESIGN_DATE_AND_TIME_ASSIGNMENT ( #17, #106, ( #170 ) ) ;
#166 = PERSON_AND_ORGANIZATION ( #82, #146 ) ;
#167 = CIRCLE ( 'NONE', #81, 12.50000000000000000 ) ;
#168 = COORDINATED_UNIVERSAL_TIME_OFFSET ( 5, 0, .BEHIND. ) ;
#169 = EDGE_LOOP ( 'NONE', ( #143, #137 ) ) ;
#170 = PRODUCT_DEFINITION ( 'UNKNOWN', '', #122, #128 ) ;
#171 = APPROVAL_PERSON_ORGANIZATION ( #54, #19, #8 ) ;
#172 = AXIS2_PLACEMENT_3D ( 'NONE', #85, #36, #12 ) ;
#173 = APPROVAL ( #33, 'UNSPECIFIED' ) ;
#174 = ADVANCED_FACE ( 'NONE', ( #113 ), #88, .T. ) ;
#175 = DIRECTION ( 'NONE',  ( -1.000000000000000000, 0.0000000000000000000, 0.0000000000000000000 ) ) ;
ENDSEC;
END-ISO-10303-21;
