ISO-10303-21;
HEADER;
FILE_DESCRIPTION (( 'STEP AP203' ),
    '1' );
FILE_NAME ('Web Model 43369_16008.step',
    '2020-10-21T18:24:23',
    ( '' ),
    ( '' ),
    'SwSTEP 2.0',
    'SolidWorks 2018',
    '' );
FILE_SCHEMA (( 'CONFIG_CONTROL_DESIGN' ));
ENDSEC;

DATA;
#1 = CARTESIAN_POINT ( 'NONE',  ( 0.0000000000000000000, 0.0000000000000000000, 0.0000000000000000000 ) ) ;
#2 = DIRECTION ( 'NONE',  ( 0.0000000000000000000, 0.0000000000000000000, 1.000000000000000000 ) ) ;
#3 = APPROVAL_STATUS ( 'not_yet_approved' ) ;
#4 = DIRECTION ( 'NONE',  ( 0.0000000000000000000, 0.0000000000000000000, 1.000000000000000000 ) ) ;
#5 = FACE_OUTER_BOUND ( 'NONE', #99, .T. ) ;
#6 = CARTESIAN_POINT ( 'NONE',  ( 0.0000000000000000000, 0.0000000000000000000, 2.299999999999999822 ) ) ;
#7 = UNCERTAINTY_MEASURE_WITH_UNIT (LENGTH_MEASURE( 1.000000000000000082E-05 ), #146, 'distance_accuracy_value', 'NONE');
#8 = DIRECTION ( 'NONE',  ( 1.000000000000000000, 0.0000000000000000000, 0.0000000000000000000 ) ) ;
#9 = EDGE_CURVE ( 'NONE', #61, #147, #51, .T. ) ;
#10 = LOCAL_TIME ( 14, 24, 23.00000000000000000, #18 ) ;
#11 = APPROVAL_PERSON_ORGANIZATION ( #120, #129, #30 ) ;
#12 = APPROVAL_DATE_TIME ( #65, #53 ) ;
#13 = CC_DESIGN_APPROVAL ( #53, ( #134 ) ) ;
#14 = COORDINATED_UNIVERSAL_TIME_OFFSET ( 5, 0, .BEHIND. ) ;
#15 = DIRECTION ( 'NONE',  ( 0.0000000000000000000, 0.0000000000000000000, 1.000000000000000000 ) ) ;
#16 = ORIENTED_EDGE ( 'NONE', *, *, #9, .T. ) ;
#17 = EDGE_CURVE ( 'NONE', #147, #110, #123, .T. ) ;
#18 = COORDINATED_UNIVERSAL_TIME_OFFSET ( 5, 0, .BEHIND. ) ;
#19 = DIRECTION ( 'NONE',  ( 0.0000000000000000000, 0.0000000000000000000, 1.000000000000000000 ) ) ;
#20 = PERSON_AND_ORGANIZATION_ROLE ( 'creator' ) ;
#21 = DATE_AND_TIME ( #151, #28 ) ;
#22 =( GEOMETRIC_REPRESENTATION_CONTEXT ( 3 ) GLOBAL_UNCERTAINTY_ASSIGNED_CONTEXT ( ( #7 ) ) GLOBAL_UNIT_ASSIGNED_CONTEXT ( ( #146, #115, #144 ) ) REPRESENTATION_CONTEXT ( 'NONE', 'WORKASPACE' ) );
#23 = PRODUCT_DEFINITION_SHAPE ( 'NONE', 'NONE',  #92 ) ;
#24 = EDGE_CURVE ( 'NONE', #110, #102, #117, .T. ) ;
#25 = DIRECTION ( 'NONE',  ( 1.000000000000000000, 0.0000000000000000000, 0.0000000000000000000 ) ) ;
#26 = CARTESIAN_POINT ( 'NONE',  ( 0.0000000000000000000, 0.0000000000000000000, 0.0000000000000000000 ) ) ;
#27 = EDGE_LOOP ( 'NONE', ( #103, #64 ) ) ;
#28 = LOCAL_TIME ( 14, 24, 23.00000000000000000, #43 ) ;
#29 = CARTESIAN_POINT ( 'NONE',  ( -12.50000000000000000, 0.0000000000000000000, 0.0000000000000000000 ) ) ;
#30 = APPROVAL_ROLE ( '' ) ;
#31 = DIRECTION ( 'NONE',  ( 0.0000000000000000000, 0.0000000000000000000, 1.000000000000000000 ) ) ;
#32 = CALENDAR_DATE ( 2020, 21, 10 ) ;
#33 = ORIENTED_EDGE ( 'NONE', *, *, #59, .F. ) ;
#34 = ORIENTED_EDGE ( 'NONE', *, *, #119, .F. ) ;
#35 = PERSON_AND_ORGANIZATION ( #97, #87 ) ;
#36 = DIRECTION ( 'NONE',  ( 0.0000000000000000000, 0.0000000000000000000, 1.000000000000000000 ) ) ;
#37 = ORIENTED_EDGE ( 'NONE', *, *, #24, .T. ) ;
#38 = APPLICATION_PROTOCOL_DEFINITION ( 'international standard', 'config_control_design', 1994, #171 ) ;
#39 = DIRECTION ( 'NONE',  ( 0.0000000000000000000, 0.0000000000000000000, 1.000000000000000000 ) ) ;
#40 = DIRECTION ( 'NONE',  ( -0.0000000000000000000, -0.0000000000000000000, -1.000000000000000000 ) ) ;
#41 = PRODUCT_RELATED_PRODUCT_CATEGORY ( 'detail', '', ( #161 ) ) ;
#42 = ORIENTED_EDGE ( 'NONE', *, *, #59, .T. ) ;
#43 = COORDINATED_UNIVERSAL_TIME_OFFSET ( 5, 0, .BEHIND. ) ;
#44 = CARTESIAN_POINT ( 'NONE',  ( 0.0000000000000000000, 0.0000000000000000000, 2.299999999999999822 ) ) ;
#45 = CYLINDRICAL_SURFACE ( 'NONE', #165, 12.50000000000000000 ) ;
#46 = ADVANCED_FACE ( 'NONE', ( #140 ), #162, .T. ) ;
#47 = PERSON_AND_ORGANIZATION ( #97, #87 ) ;
#48 = COORDINATED_UNIVERSAL_TIME_OFFSET ( 5, 0, .BEHIND. ) ;
#49 = AXIS2_PLACEMENT_3D ( 'NONE', #157, #19, #125 ) ;
#50 = CIRCLE ( 'NONE', #62, 12.50000000000000000 ) ;
#51 = CIRCLE ( 'NONE', #49, 12.50000000000000000 ) ;
#52 = PERSON_AND_ORGANIZATION ( #97, #87 ) ;
#53 = APPROVAL ( #3, 'UNSPECIFIED' ) ;
#54 = CARTESIAN_POINT ( 'NONE',  ( 12.50000000000000000, 1.530808498934191521E-15, 0.0000000000000000000 ) ) ;
#55 = LOCAL_TIME ( 14, 24, 23.00000000000000000, #48 ) ;
#56 = DIRECTION ( 'NONE',  ( -1.000000000000000000, 0.0000000000000000000, 0.0000000000000000000 ) ) ;
#57 = APPROVAL_DATE_TIME ( #112, #116 ) ;
#58 = PERSON_AND_ORGANIZATION_ROLE ( 'creator' ) ;
#59 = EDGE_CURVE ( 'NONE', #61, #102, #150, .T. ) ;
#60 = VECTOR ( 'NONE', #108, 1000.000000000000000 ) ;
#61 = VERTEX_POINT ( 'NONE', #68 ) ;
#62 = AXIS2_PLACEMENT_3D ( 'NONE', #44, #4, #8 ) ;
#63 = ORIENTED_EDGE ( 'NONE', *, *, #17, .F. ) ;
#64 = ORIENTED_EDGE ( 'NONE', *, *, #79, .F. ) ;
#65 = DATE_AND_TIME ( #174, #10 ) ;
#66 = LOCAL_TIME ( 14, 24, 23.00000000000000000, #14 ) ;
#67 = AXIS2_PLACEMENT_3D ( 'NONE', #139, #107, #56 ) ;
#68 = CARTESIAN_POINT ( 'NONE',  ( 12.50000000000000000, 1.530808498934191521E-15, 2.299999999999999822 ) ) ;
#69 = DIRECTION ( 'NONE',  ( 1.000000000000000000, 0.0000000000000000000, 0.0000000000000000000 ) ) ;
#70 = VECTOR ( 'NONE', #84, 1000.000000000000000 ) ;
#71 = APPROVAL_STATUS ( 'not_yet_approved' ) ;
#72 = PLANE ( 'NONE',  #118 ) ;
#73 = DIRECTION ( 'NONE',  ( -1.000000000000000000, 0.0000000000000000000, 0.0000000000000000000 ) ) ;
#74 = DATE_TIME_ROLE ( 'creation_date' ) ;
#75 = DATE_TIME_ROLE ( 'classification_date' ) ;
#76 = FACE_OUTER_BOUND ( 'NONE', #27, .T. ) ;
#77 = CC_DESIGN_DATE_AND_TIME_ASSIGNMENT ( #21, #75, ( #134 ) ) ;
#78 = MANIFOLD_SOLID_BREP ( 'Boss-Extrude1', #89 ) ;
#79 = EDGE_CURVE ( 'NONE', #102, #110, #121, .T. ) ;
#80 = PERSON_AND_ORGANIZATION ( #97, #87 ) ;
#81 = APPROVAL_PERSON_ORGANIZATION ( #80, #116, #173 ) ;
#82 = CARTESIAN_POINT ( 'NONE',  ( 0.0000000000000000000, 0.0000000000000000000, 0.0000000000000000000 ) ) ;
#83 = CARTESIAN_POINT ( 'NONE',  ( 0.0000000000000000000, 0.0000000000000000000, 0.0000000000000000000 ) ) ;
#84 = DIRECTION ( 'NONE',  ( -0.0000000000000000000, -0.0000000000000000000, -1.000000000000000000 ) ) ;
#85 = PERSON_AND_ORGANIZATION_ROLE ( 'classification_officer' ) ;
#86 = PERSON_AND_ORGANIZATION_ROLE ( 'design_supplier' ) ;
#87 = ORGANIZATION ( 'UNSPECIFIED', 'UNSPECIFIED', '' ) ;
#88 = AXIS2_PLACEMENT_3D ( 'NONE', #26, #39, #98 ) ;
#89 = CLOSED_SHELL ( 'NONE', ( #46, #148, #132, #101 ) ) ;
#90 = DATE_AND_TIME ( #32, #105 ) ;
#91 = AXIS2_PLACEMENT_3D ( 'NONE', #1, #15, #25 ) ;
#92 = PRODUCT_DEFINITION ( 'UNKNOWN', '', #104, #130 ) ;
#93 = CC_DESIGN_PERSON_AND_ORGANIZATION_ASSIGNMENT ( #47, #164, ( #161 ) ) ;
#94 = PLANE ( 'NONE',  #114 ) ;
#95 = CARTESIAN_POINT ( 'NONE',  ( 0.0000000000000000000, 0.0000000000000000000, 2.299999999999999822 ) ) ;
#96 = APPROVAL_STATUS ( 'not_yet_approved' ) ;
#97 = PERSON ( 'UNSPECIFIED', 'UNSPECIFIED', 'UNSPECIFIED', ('UNSPECIFIED'), ('UNSPECIFIED'), ('UNSPECIFIED') ) ;
#98 = DIRECTION ( 'NONE',  ( 1.000000000000000000, 0.0000000000000000000, 0.0000000000000000000 ) ) ;
#99 = EDGE_LOOP ( 'NONE', ( #135, #16 ) ) ;
#100 = APPROVAL_DATE_TIME ( #90, #129 ) ;
#101 = ADVANCED_FACE ( 'NONE', ( #76 ), #94, .F. ) ;
#102 = VERTEX_POINT ( 'NONE', #54 ) ;
#103 = ORIENTED_EDGE ( 'NONE', *, *, #24, .F. ) ;
#104 = PRODUCT_DEFINITION_FORMATION_WITH_SPECIFIED_SOURCE ( 'ANY', '', #161, .NOT_KNOWN. ) ;
#105 = LOCAL_TIME ( 14, 24, 23.00000000000000000, #158 ) ;
#106 = PERSON_AND_ORGANIZATION ( #97, #87 ) ;
#107 = DIRECTION ( 'NONE',  ( -0.0000000000000000000, -0.0000000000000000000, -1.000000000000000000 ) ) ;
#108 = DIRECTION ( 'NONE',  ( -0.0000000000000000000, -0.0000000000000000000, -1.000000000000000000 ) ) ;
#109 = ADVANCED_BREP_SHAPE_REPRESENTATION ( 'Web Model 43369_16008', ( #78, #88 ), #22 ) ;
#110 = VERTEX_POINT ( 'NONE', #29 ) ;
#111 = DIRECTION ( 'NONE',  ( 1.000000000000000000, 0.0000000000000000000, -0.0000000000000000000 ) ) ;
#112 = DATE_AND_TIME ( #154, #66 ) ;
#113 = CC_DESIGN_PERSON_AND_ORGANIZATION_ASSIGNMENT ( #52, #86, ( #104 ) ) ;
#114 = AXIS2_PLACEMENT_3D ( 'NONE', #82, #31, #142 ) ;
#115 =( NAMED_UNIT ( * ) PLANE_ANGLE_UNIT ( ) SI_UNIT ( $, .RADIAN. ) );
#116 = APPROVAL ( #71, 'UNSPECIFIED' ) ;
#117 = CIRCLE ( 'NONE', #136, 12.50000000000000000 ) ;
#118 = AXIS2_PLACEMENT_3D ( 'NONE', #6, #2, #111 ) ;
#119 = EDGE_CURVE ( 'NONE', #147, #61, #50, .T. ) ;
#120 = PERSON_AND_ORGANIZATION ( #97, #87 ) ;
#121 = CIRCLE ( 'NONE', #91, 12.50000000000000000 ) ;
#122 = SHAPE_DEFINITION_REPRESENTATION ( #23, #109 ) ;
#123 = LINE ( 'NONE', #137, #60 ) ;
#124 = CC_DESIGN_PERSON_AND_ORGANIZATION_ASSIGNMENT ( #168, #85, ( #134 ) ) ;
#125 = DIRECTION ( 'NONE',  ( 1.000000000000000000, 0.0000000000000000000, 0.0000000000000000000 ) ) ;
#126 = PERSON_AND_ORGANIZATION ( #97, #87 ) ;
#127 = CALENDAR_DATE ( 2020, 21, 10 ) ;
#128 = EDGE_LOOP ( 'NONE', ( #153, #42, #156, #63 ) ) ;
#129 = APPROVAL ( #96, 'UNSPECIFIED' ) ;
#130 = DESIGN_CONTEXT ( 'detailed design', #171, 'design' ) ;
#131 = FACE_OUTER_BOUND ( 'NONE', #138, .T. ) ;
#132 = ADVANCED_FACE ( 'NONE', ( #5 ), #72, .T. ) ;
#133 = CC_DESIGN_DATE_AND_TIME_ASSIGNMENT ( #175, #74, ( #92 ) ) ;
#134 = SECURITY_CLASSIFICATION ( '', '', #163 ) ;
#135 = ORIENTED_EDGE ( 'NONE', *, *, #119, .T. ) ;
#136 = AXIS2_PLACEMENT_3D ( 'NONE', #83, #36, #69 ) ;
#137 = CARTESIAN_POINT ( 'NONE',  ( -12.50000000000000000, 0.0000000000000000000, 2.299999999999999822 ) ) ;
#138 = EDGE_LOOP ( 'NONE', ( #33, #34, #167, #37 ) ) ;
#139 = CARTESIAN_POINT ( 'NONE',  ( 0.0000000000000000000, 0.0000000000000000000, 2.299999999999999822 ) ) ;
#140 = FACE_OUTER_BOUND ( 'NONE', #128, .T. ) ;
#141 = APPROVAL_ROLE ( '' ) ;
#142 = DIRECTION ( 'NONE',  ( 1.000000000000000000, 0.0000000000000000000, -0.0000000000000000000 ) ) ;
#143 = CC_DESIGN_PERSON_AND_ORGANIZATION_ASSIGNMENT ( #35, #20, ( #104 ) ) ;
#144 =( NAMED_UNIT ( * ) SI_UNIT ( $, .STERADIAN. ) SOLID_ANGLE_UNIT ( ) );
#145 = MECHANICAL_CONTEXT ( 'NONE', #172, 'mechanical' ) ;
#146 =( LENGTH_UNIT ( ) NAMED_UNIT ( * ) SI_UNIT ( .MILLI., .METRE. ) );
#147 = VERTEX_POINT ( 'NONE', #160 ) ;
#148 = ADVANCED_FACE ( 'NONE', ( #131 ), #45, .T. ) ;
#149 = CC_DESIGN_APPROVAL ( #129, ( #92 ) ) ;
#150 = LINE ( 'NONE', #170, #70 ) ;
#151 = CALENDAR_DATE ( 2020, 21, 10 ) ;
#152 = APPROVAL_PERSON_ORGANIZATION ( #106, #53, #141 ) ;
#153 = ORIENTED_EDGE ( 'NONE', *, *, #9, .F. ) ;
#154 = CALENDAR_DATE ( 2020, 21, 10 ) ;
#155 = CC_DESIGN_PERSON_AND_ORGANIZATION_ASSIGNMENT ( #126, #58, ( #92 ) ) ;
#156 = ORIENTED_EDGE ( 'NONE', *, *, #79, .T. ) ;
#157 = CARTESIAN_POINT ( 'NONE',  ( 0.0000000000000000000, 0.0000000000000000000, 2.299999999999999822 ) ) ;
#158 = COORDINATED_UNIVERSAL_TIME_OFFSET ( 5, 0, .BEHIND. ) ;
#159 = CC_DESIGN_APPROVAL ( #116, ( #104 ) ) ;
#160 = CARTESIAN_POINT ( 'NONE',  ( -12.50000000000000000, 0.0000000000000000000, 2.299999999999999822 ) ) ;
#161 = PRODUCT ( 'Web Model 43369_16008', 'Web Model 43369_16008', '', ( #145 ) ) ;
#162 = CYLINDRICAL_SURFACE ( 'NONE', #67, 12.50000000000000000 ) ;
#163 = SECURITY_CLASSIFICATION_LEVEL ( 'unclassified' ) ;
#164 = PERSON_AND_ORGANIZATION_ROLE ( 'design_owner' ) ;
#165 = AXIS2_PLACEMENT_3D ( 'NONE', #95, #40, #73 ) ;
#166 = APPLICATION_PROTOCOL_DEFINITION ( 'international standard', 'config_control_design', 1994, #172 ) ;
#167 = ORIENTED_EDGE ( 'NONE', *, *, #17, .T. ) ;
#168 = PERSON_AND_ORGANIZATION ( #97, #87 ) ;
#169 = CC_DESIGN_SECURITY_CLASSIFICATION ( #134, ( #104 ) ) ;
#170 = CARTESIAN_POINT ( 'NONE',  ( 12.50000000000000000, 1.530808498934191521E-15, 2.299999999999999822 ) ) ;
#171 = APPLICATION_CONTEXT ( 'configuration controlled 3d designs of mechanical parts and assemblies' ) ;
#172 = APPLICATION_CONTEXT ( 'configuration controlled 3d designs of mechanical parts and assemblies' ) ;
#173 = APPROVAL_ROLE ( '' ) ;
#174 = CALENDAR_DATE ( 2020, 21, 10 ) ;
#175 = DATE_AND_TIME ( #127, #55 ) ;
ENDSEC;
END-ISO-10303-21;
