ISO-10303-21;
HEADER;
FILE_DESCRIPTION (( 'STEP AP203' ),
    '1' );
FILE_NAME ('Web Model 14684_14684.step',
    '2020-04-13T13:38:08',
    ( '' ),
    ( '' ),
    'SwSTEP 2.0',
    'SolidWorks 2018',
    '' );
FILE_SCHEMA (( 'CONFIG_CONTROL_DESIGN' ));
ENDSEC;

DATA;
#1 = CALENDAR_DATE ( 2020, 13, 4 ) ;
#2 = ADVANCED_FACE ( 'NONE', ( #67 ), #126, .F. ) ;
#3 = CALENDAR_DATE ( 2020, 13, 4 ) ;
#4 = PRODUCT_DEFINITION_FORMATION_WITH_SPECIFIED_SOURCE ( 'ANY', '', #105, .NOT_KNOWN. ) ;
#5 = ORIENTED_EDGE ( 'NONE', *, *, #167, .F. ) ;
#6 = DIRECTION ( 'NONE',  ( 1.000000000000000000, 0.0000000000000000000, 0.0000000000000000000 ) ) ;
#7 = LOCAL_TIME ( 9, 38, 8.000000000000000000, #164 ) ;
#8 = APPROVAL_STATUS ( 'not_yet_approved' ) ;
#9 = PERSON_AND_ORGANIZATION_ROLE ( 'classification_officer' ) ;
#10 = VERTEX_POINT ( 'NONE', #127 ) ;
#11 = EDGE_LOOP ( 'NONE', ( #166, #47, #117, #77 ) ) ;
#12 = PERSON_AND_ORGANIZATION ( #155, #147 ) ;
#13 = ADVANCED_FACE ( 'NONE', ( #108 ), #140, .T. ) ;
#14 = LINE ( 'NONE', #19, #79 ) ;
#16 = AXIS2_PLACEMENT_3D ( 'NONE', #174, #30, #104 ) ;
#15 = APPROVAL_PERSON_ORGANIZATION ( #27, #66, #33 ) ;
#17 = CARTESIAN_POINT ( 'NONE',  ( 1.500000000000000000, 0.0000000000000000000, 0.0000000000000000000 ) ) ;
#18 = AXIS2_PLACEMENT_3D ( 'NONE', #17, #115, #28 ) ;
#19 = CARTESIAN_POINT ( 'NONE',  ( 1.500000000000000000, 0.0000000000000000000, 12.69999999999999929 ) ) ;
#20 = PLANE ( 'NONE',  #23 ) ;
#21 = PERSON_AND_ORGANIZATION_ROLE ( 'creator' ) ;
#22 = CARTESIAN_POINT ( 'NONE',  ( 1.500000000000000000, 0.0000000000000000000, 0.0000000000000000000 ) ) ;
#23 = AXIS2_PLACEMENT_3D ( 'NONE', #34, #172, #93 ) ;
#24 = ORIENTED_EDGE ( 'NONE', *, *, #25, .T. ) ;
#25 = EDGE_CURVE ( 'NONE', #98, #113, #139, .T. ) ;
#26 = AXIS2_PLACEMENT_3D ( 'NONE', #101, #152, #84 ) ;
#27 = PERSON_AND_ORGANIZATION ( #155, #147 ) ;
#28 = DIRECTION ( 'NONE',  ( 0.0000000000000000000, 0.0000000000000000000, 1.000000000000000000 ) ) ;
#29 = CIRCLE ( 'NONE', #16, 12.69999999999999929 ) ;
#30 = DIRECTION ( 'NONE',  ( 1.000000000000000000, 0.0000000000000000000, 0.0000000000000000000 ) ) ;
#31 = ORIENTED_EDGE ( 'NONE', *, *, #35, .F. ) ;
#32 = CALENDAR_DATE ( 2020, 13, 4 ) ;
#33 = APPROVAL_ROLE ( '' ) ;
#34 = CARTESIAN_POINT ( 'NONE',  ( 1.500000000000000000, 0.0000000000000000000, 0.0000000000000000000 ) ) ;
#35 = EDGE_CURVE ( 'NONE', #113, #42, #29, .T. ) ;
#36 = CARTESIAN_POINT ( 'NONE',  ( 1.500000000000000000, 0.0000000000000000000, 0.0000000000000000000 ) ) ;
#37 = PERSON_AND_ORGANIZATION_ROLE ( 'creator' ) ;
#38 = FACE_OUTER_BOUND ( 'NONE', #90, .T. ) ;
#39 = DIRECTION ( 'NONE',  ( 0.0000000000000000000, 0.0000000000000000000, -1.000000000000000000 ) ) ;
#40 = CLOSED_SHELL ( 'NONE', ( #87, #13, #168, #2 ) ) ;
#41 = CARTESIAN_POINT ( 'NONE',  ( -1.500000000000000000, 0.0000000000000000000, 0.0000000000000000000 ) ) ;
#42 = VERTEX_POINT ( 'NONE', #60 ) ;
#43 = DIRECTION ( 'NONE',  ( -1.000000000000000000, -0.0000000000000000000, -0.0000000000000000000 ) ) ;
#44 = AXIS2_PLACEMENT_3D ( 'NONE', #36, #106, #148 ) ;
#45 = SHAPE_DEFINITION_REPRESENTATION ( #111, #96 ) ;
#46 = APPROVAL_DATE_TIME ( #142, #66 ) ;
#47 = ORIENTED_EDGE ( 'NONE', *, *, #132, .F. ) ;
#48 = DATE_AND_TIME ( #157, #69 ) ;
#49 = APPLICATION_PROTOCOL_DEFINITION ( 'international standard', 'config_control_design', 1994, #144 ) ;
#50 = PERSON_AND_ORGANIZATION_ROLE ( 'design_supplier' ) ;
#51 = PERSON_AND_ORGANIZATION ( #155, #147 ) ;
#52 = APPROVAL_STATUS ( 'not_yet_approved' ) ;
#53 = DIRECTION ( 'NONE',  ( 0.0000000000000000000, 0.0000000000000000000, 1.000000000000000000 ) ) ;
#54 = CC_DESIGN_SECURITY_CLASSIFICATION ( #128, ( #4 ) ) ;
#55 = APPROVAL_DATE_TIME ( #74, #149 ) ;
#56 = LOCAL_TIME ( 9, 38, 8.000000000000000000, #123 ) ;
#57 = CC_DESIGN_PERSON_AND_ORGANIZATION_ASSIGNMENT ( #86, #21, ( #59 ) ) ;
#58 = DATE_AND_TIME ( #78, #7 ) ;
#59 = PRODUCT_DEFINITION ( 'UNKNOWN', '', #4, #145 ) ;
#60 = CARTESIAN_POINT ( 'NONE',  ( -1.500000000000000000, 0.0000000000000000000, 12.69999999999999929 ) ) ;
#61 = SECURITY_CLASSIFICATION_LEVEL ( 'unclassified' ) ;
#62 = EDGE_LOOP ( 'NONE', ( #102, #156 ) ) ;
#64 = CC_DESIGN_PERSON_AND_ORGANIZATION_ASSIGNMENT ( #12, #118, ( #105 ) ) ;
#63 = COORDINATED_UNIVERSAL_TIME_OFFSET ( 5, 0, .BEHIND. ) ;
#65 = VECTOR ( 'NONE', #43, 1000.000000000000000 ) ;
#66 = APPROVAL ( #8, 'UNSPECIFIED' ) ;
#67 = FACE_OUTER_BOUND ( 'NONE', #82, .T. ) ;
#68 = CC_DESIGN_DATE_AND_TIME_ASSIGNMENT ( #48, #122, ( #59 ) ) ;
#69 = LOCAL_TIME ( 9, 38, 8.000000000000000000, #83 ) ;
#70 = LOCAL_TIME ( 9, 38, 8.000000000000000000, #63 ) ;
#71 = DIRECTION ( 'NONE',  ( -1.000000000000000000, -0.0000000000000000000, -0.0000000000000000000 ) ) ;
#72 =( NAMED_UNIT ( * ) PLANE_ANGLE_UNIT ( ) SI_UNIT ( $, .RADIAN. ) );
#73 = DIRECTION ( 'NONE',  ( 1.000000000000000000, 0.0000000000000000000, 0.0000000000000000000 ) ) ;
#74 = DATE_AND_TIME ( #1, #70 ) ;
#75 = DATE_TIME_ROLE ( 'classification_date' ) ;
#76 = CC_DESIGN_APPROVAL ( #66, ( #128 ) ) ;
#77 = ORIENTED_EDGE ( 'NONE', *, *, #125, .T. ) ;
#78 = CALENDAR_DATE ( 2020, 13, 4 ) ;
#79 = VECTOR ( 'NONE', #71, 1000.000000000000000 ) ;
#81 = CC_DESIGN_APPROVAL ( #149, ( #4 ) ) ;
#80 = LOCAL_TIME ( 9, 38, 8.000000000000000000, #175 ) ;
#82 = EDGE_LOOP ( 'NONE', ( #110, #31 ) ) ;
#83 = COORDINATED_UNIVERSAL_TIME_OFFSET ( 5, 0, .BEHIND. ) ;
#84 = DIRECTION ( 'NONE',  ( 0.0000000000000000000, 0.0000000000000000000, 1.000000000000000000 ) ) ;
#85 = CIRCLE ( 'NONE', #97, 12.69999999999999929 ) ;
#86 = PERSON_AND_ORGANIZATION ( #155, #147 ) ;
#87 = ADVANCED_FACE ( 'NONE', ( #38 ), #120, .T. ) ;
#88 = PERSON_AND_ORGANIZATION ( #155, #147 ) ;
#89 = APPROVAL_ROLE ( '' ) ;
#90 = EDGE_LOOP ( 'NONE', ( #5, #24, #135, #95 ) ) ;
#91 = APPROVAL_ROLE ( '' ) ;
#92 = CC_DESIGN_PERSON_AND_ORGANIZATION_ASSIGNMENT ( #116, #50, ( #4 ) ) ;
#93 = DIRECTION ( 'NONE',  ( 0.0000000000000000000, 0.0000000000000000000, -1.000000000000000000 ) ) ;
#94 = CARTESIAN_POINT ( 'NONE',  ( -1.500000000000000000, 0.0000000000000000000, 0.0000000000000000000 ) ) ;
#95 = ORIENTED_EDGE ( 'NONE', *, *, #163, .F. ) ;
#96 = ADVANCED_BREP_SHAPE_REPRESENTATION ( 'Web Model 14684_14684', ( #141, #107 ), #138 ) ;
#97 = AXIS2_PLACEMENT_3D ( 'NONE', #22, #73, #39 ) ;
#98 = VERTEX_POINT ( 'NONE', #153 ) ;
#99 = APPROVAL_DATE_TIME ( #160, #121 ) ;
#100 = CIRCLE ( 'NONE', #44, 12.69999999999999929 ) ;
#101 = CARTESIAN_POINT ( 'NONE',  ( 1.500000000000000000, 0.0000000000000000000, 0.0000000000000000000 ) ) ;
#102 = ORIENTED_EDGE ( 'NONE', *, *, #132, .T. ) ;
#103 = PERSON_AND_ORGANIZATION ( #155, #147 ) ;
#104 = DIRECTION ( 'NONE',  ( 0.0000000000000000000, 0.0000000000000000000, -1.000000000000000000 ) ) ;
#105 = PRODUCT ( 'Web Model 14684_14684', 'Web Model 14684_14684', '', ( #143 ) ) ;
#106 = DIRECTION ( 'NONE',  ( 1.000000000000000000, 0.0000000000000000000, 0.0000000000000000000 ) ) ;
#107 = AXIS2_PLACEMENT_3D ( 'NONE', #131, #53, #161 ) ;
#108 = FACE_OUTER_BOUND ( 'NONE', #11, .T. ) ;
#109 = APPLICATION_CONTEXT ( 'configuration controlled 3d designs of mechanical parts and assemblies' ) ;
#110 = ORIENTED_EDGE ( 'NONE', *, *, #125, .F. ) ;
#111 = PRODUCT_DEFINITION_SHAPE ( 'NONE', 'NONE',  #59 ) ;
#112 = DIRECTION ( 'NONE',  ( 1.000000000000000000, 0.0000000000000000000, 0.0000000000000000000 ) ) ;
#113 = VERTEX_POINT ( 'NONE', #130 ) ;
#114 = CC_DESIGN_APPROVAL ( #121, ( #59 ) ) ;
#115 = DIRECTION ( 'NONE',  ( -1.000000000000000000, -0.0000000000000000000, -0.0000000000000000000 ) ) ;
#116 = PERSON_AND_ORGANIZATION ( #155, #147 ) ;
#117 = ORIENTED_EDGE ( 'NONE', *, *, #163, .T. ) ;
#118 = PERSON_AND_ORGANIZATION_ROLE ( 'design_owner' ) ;
#119 = DIRECTION ( 'NONE',  ( 0.0000000000000000000, 0.0000000000000000000, -1.000000000000000000 ) ) ;
#120 = CYLINDRICAL_SURFACE ( 'NONE', #18, 12.69999999999999929 ) ;
#121 = APPROVAL ( #170, 'UNSPECIFIED' ) ;
#122 = DATE_TIME_ROLE ( 'creation_date' ) ;
#123 = COORDINATED_UNIVERSAL_TIME_OFFSET ( 5, 0, .BEHIND. ) ;
#124 = UNCERTAINTY_MEASURE_WITH_UNIT (LENGTH_MEASURE( 1.000000000000000082E-05 ), #146, 'distance_accuracy_value', 'NONE');
#125 = EDGE_CURVE ( 'NONE', #42, #113, #169, .T. ) ;
#126 = PLANE ( 'NONE',  #129 ) ;
#127 = CARTESIAN_POINT ( 'NONE',  ( 1.500000000000000000, 0.0000000000000000000, 12.69999999999999929 ) ) ;
#128 = SECURITY_CLASSIFICATION ( '', '', #61 ) ;
#129 = AXIS2_PLACEMENT_3D ( 'NONE', #41, #112, #137 ) ;
#130 = CARTESIAN_POINT ( 'NONE',  ( -1.500000000000000000, 1.555301434917138433E-15, -12.69999999999999929 ) ) ;
#131 = CARTESIAN_POINT ( 'NONE',  ( 0.0000000000000000000, 0.0000000000000000000, 0.0000000000000000000 ) ) ;
#132 = EDGE_CURVE ( 'NONE', #10, #98, #100, .T. ) ;
#133 = PRODUCT_RELATED_PRODUCT_CATEGORY ( 'detail', '', ( #105 ) ) ;
#134 =( NAMED_UNIT ( * ) SI_UNIT ( $, .STERADIAN. ) SOLID_ANGLE_UNIT ( ) );
#135 = ORIENTED_EDGE ( 'NONE', *, *, #35, .T. ) ;
#136 = CARTESIAN_POINT ( 'NONE',  ( 1.500000000000000000, 1.555301434917138433E-15, -12.69999999999999929 ) ) ;
#137 = DIRECTION ( 'NONE',  ( 0.0000000000000000000, 0.0000000000000000000, -1.000000000000000000 ) ) ;
#138 =( GEOMETRIC_REPRESENTATION_CONTEXT ( 3 ) GLOBAL_UNCERTAINTY_ASSIGNED_CONTEXT ( ( #124 ) ) GLOBAL_UNIT_ASSIGNED_CONTEXT ( ( #146, #72, #134 ) ) REPRESENTATION_CONTEXT ( 'NONE', 'WORKASPACE' ) );
#139 = LINE ( 'NONE', #136, #65 ) ;
#140 = CYLINDRICAL_SURFACE ( 'NONE', #26, 12.69999999999999929 ) ;
#141 = MANIFOLD_SOLID_BREP ( 'Boss-Extrude1', #40 ) ;
#142 = DATE_AND_TIME ( #32, #80 ) ;
#143 = MECHANICAL_CONTEXT ( 'NONE', #144, 'mechanical' ) ;
#144 = APPLICATION_CONTEXT ( 'configuration controlled 3d designs of mechanical parts and assemblies' ) ;
#145 = DESIGN_CONTEXT ( 'detailed design', #109, 'design' ) ;
#146 =( LENGTH_UNIT ( ) NAMED_UNIT ( * ) SI_UNIT ( .MILLI., .METRE. ) );
#147 = ORGANIZATION ( 'UNSPECIFIED', 'UNSPECIFIED', '' ) ;
#148 = DIRECTION ( 'NONE',  ( 0.0000000000000000000, 0.0000000000000000000, -1.000000000000000000 ) ) ;
#149 = APPROVAL ( #52, 'UNSPECIFIED' ) ;
#150 = APPROVAL_PERSON_ORGANIZATION ( #162, #149, #89 ) ;
#151 = AXIS2_PLACEMENT_3D ( 'NONE', #94, #6, #119 ) ;
#152 = DIRECTION ( 'NONE',  ( -1.000000000000000000, -0.0000000000000000000, -0.0000000000000000000 ) ) ;
#153 = CARTESIAN_POINT ( 'NONE',  ( 1.500000000000000000, 1.555301434917138433E-15, -12.69999999999999929 ) ) ;
#154 = CC_DESIGN_PERSON_AND_ORGANIZATION_ASSIGNMENT ( #51, #37, ( #4 ) ) ;
#155 = PERSON ( 'UNSPECIFIED', 'UNSPECIFIED', 'UNSPECIFIED', ('UNSPECIFIED'), ('UNSPECIFIED'), ('UNSPECIFIED') ) ;
#156 = ORIENTED_EDGE ( 'NONE', *, *, #167, .T. ) ;
#157 = CALENDAR_DATE ( 2020, 13, 4 ) ;
#158 = APPLICATION_PROTOCOL_DEFINITION ( 'international standard', 'config_control_design', 1994, #109 ) ;
#159 = FACE_OUTER_BOUND ( 'NONE', #62, .T. ) ;
#160 = DATE_AND_TIME ( #3, #56 ) ;
#161 = DIRECTION ( 'NONE',  ( 1.000000000000000000, 0.0000000000000000000, 0.0000000000000000000 ) ) ;
#162 = PERSON_AND_ORGANIZATION ( #155, #147 ) ;
#163 = EDGE_CURVE ( 'NONE', #10, #42, #14, .T. ) ;
#164 = COORDINATED_UNIVERSAL_TIME_OFFSET ( 5, 0, .BEHIND. ) ;
#165 = CC_DESIGN_PERSON_AND_ORGANIZATION_ASSIGNMENT ( #103, #9, ( #128 ) ) ;
#166 = ORIENTED_EDGE ( 'NONE', *, *, #25, .F. ) ;
#167 = EDGE_CURVE ( 'NONE', #98, #10, #85, .T. ) ;
#168 = ADVANCED_FACE ( 'NONE', ( #159 ), #20, .T. ) ;
#169 = CIRCLE ( 'NONE', #151, 12.69999999999999929 ) ;
#170 = APPROVAL_STATUS ( 'not_yet_approved' ) ;
#171 = APPROVAL_PERSON_ORGANIZATION ( #88, #121, #91 ) ;
#172 = DIRECTION ( 'NONE',  ( 1.000000000000000000, 0.0000000000000000000, 0.0000000000000000000 ) ) ;
#173 = CC_DESIGN_DATE_AND_TIME_ASSIGNMENT ( #58, #75, ( #128 ) ) ;
#174 = CARTESIAN_POINT ( 'NONE',  ( -1.500000000000000000, 0.0000000000000000000, 0.0000000000000000000 ) ) ;
#175 = COORDINATED_UNIVERSAL_TIME_OFFSET ( 5, 0, .BEHIND. ) ;
ENDSEC;
END-ISO-10303-21;
