ISO-10303-21;
HEADER;
FILE_DESCRIPTION (( 'STEP AP214' ),
    '1' );
FILE_NAME ('3503-E0W.STEP',
    '2010-12-06T18:28:29',
    ( 'Admin' ),
    ( 'Thorlabs, Inc.' ),
    'SwSTEP 2.0',
    'SolidWorks 2009',
    '' );
FILE_SCHEMA (( 'AUTOMOTIVE_DESIGN' ));
ENDSEC;

DATA;
#1 = ORIENTED_EDGE ( 'NONE', *, *, #68, .F. ) ;
#2 = EDGE_LOOP ( 'NONE', ( #1, #64, #6 ) ) ;
#3 = ORIENTED_EDGE ( 'NONE', *, *, #51, .F. ) ;
#4 = ORIENTED_EDGE ( 'NONE', *, *, #17, .T. ) ;
#5 = EDGE_LOOP ( 'NONE', ( #14, #33, #10 ) ) ;
#6 = ORIENTED_EDGE ( 'NONE', *, *, #36, .F. ) ;
#7 = EDGE_CURVE ( 'NONE', #72, #27, #82, .T. ) ;
#8 = ADVANCED_FACE ( 'NONE', ( #120 ), #122, .T. ) ;
#9 = ORIENTED_EDGE ( 'NONE', *, *, #39, .T. ) ;
#10 = ORIENTED_EDGE ( 'NONE', *, *, #36, .T. ) ;
#11 = ORIENTED_EDGE ( 'NONE', *, *, #53, .F. ) ;
#12 = ORIENTED_EDGE ( 'NONE', *, *, #76, .T. ) ;
#13 = CLOSED_SHELL ( 'NONE', ( #81, #38, #52, #70, #28, #18, #8, #25, #37 ) ) ;
#14 = ORIENTED_EDGE ( 'NONE', *, *, #7, .F. ) ;
#15 = EDGE_CURVE ( 'NONE', #58, #57, #113, .T. ) ;
#16 = ORIENTED_EDGE ( 'NONE', *, *, #68, .T. ) ;
#17 = EDGE_CURVE ( 'NONE', #54, #55, #101, .T. ) ;
#18 = ADVANCED_FACE ( 'NONE', ( #97 ), #132, .T. ) ;
#19 = EDGE_LOOP ( 'NONE', ( #11, #29, #9, #12 ) ) ;
#20 = ORIENTED_EDGE ( 'NONE', *, *, #76, .F. ) ;
#21 = ORIENTED_EDGE ( 'NONE', *, *, #46, .T. ) ;
#22 = EDGE_LOOP ( 'NONE', ( #31, #24 ) ) ;
#23 = ORIENTED_EDGE ( 'NONE', *, *, #74, .F. ) ;
#24 = ORIENTED_EDGE ( 'NONE', *, *, #62, .T. ) ;
#25 = ADVANCED_FACE ( 'NONE', ( #134 ), #150, .T. ) ;
#26 = ORIENTED_EDGE ( 'NONE', *, *, #69, .T. ) ;
#27 = VERTEX_POINT ( 'NONE', #217 ) ;
#28 = ADVANCED_FACE ( 'NONE', ( #174 ), #271, .F. ) ;
#29 = ORIENTED_EDGE ( 'NONE', *, *, #15, .F. ) ;
#30 = EDGE_LOOP ( 'NONE', ( #60, #50, #47, #45 ) ) ;
#31 = ORIENTED_EDGE ( 'NONE', *, *, #15, .T. ) ;
#32 = EDGE_LOOP ( 'NONE', ( #3, #4, #21, #20 ) ) ;
#33 = ORIENTED_EDGE ( 'NONE', *, *, #71, .F. ) ;
#34 = ORIENTED_EDGE ( 'NONE', *, *, #17, .F. ) ;
#35 = EDGE_LOOP ( 'NONE', ( #23, #16, #26, #34 ) ) ;
#36 = EDGE_CURVE ( 'NONE', #73, #27, #198, .T. ) ;
#37 = ADVANCED_FACE ( 'NONE', ( #215 ), #269, .T. ) ;
#38 = ADVANCED_FACE ( 'NONE', ( #268 ), #196, .T. ) ;
#39 = EDGE_CURVE ( 'NONE', #58, #41, #191, .T. ) ;
#40 = ORIENTED_EDGE ( 'NONE', *, *, #39, .F. ) ;
#41 = VERTEX_POINT ( 'NONE', #187 ) ;
#42 = EDGE_CURVE ( 'NONE', #44, #41, #261, .T. ) ;
#43 = ORIENTED_EDGE ( 'NONE', *, *, #42, .T. ) ;
#44 = VERTEX_POINT ( 'NONE', #256 ) ;
#45 = ORIENTED_EDGE ( 'NONE', *, *, #46, .F. ) ;
#46 = EDGE_CURVE ( 'NONE', #55, #44, #254, .T. ) ;
#47 = ORIENTED_EDGE ( 'NONE', *, *, #42, .F. ) ;
#48 = ORIENTED_EDGE ( 'NONE', *, *, #53, .T. ) ;
#49 = MANIFOLD_SOLID_BREP ( 'NONE', #13 ) ;
#50 = ORIENTED_EDGE ( 'NONE', *, *, #51, .T. ) ;
#51 = EDGE_CURVE ( 'NONE', #54, #41, #183, .T. ) ;
#52 = ADVANCED_FACE ( 'NONE', ( #179 ), #274, .T. ) ;
#53 = EDGE_CURVE ( 'NONE', #57, #44, #170, .T. ) ;
#54 = VERTEX_POINT ( 'NONE', #166 ) ;
#55 = VERTEX_POINT ( 'NONE', #165 ) ;
#56 = ORIENTED_EDGE ( 'NONE', *, *, #62, .F. ) ;
#57 = VERTEX_POINT ( 'NONE', #164 ) ;
#58 = VERTEX_POINT ( 'NONE', #163 ) ;
#59 = EDGE_CURVE ( 'NONE', #55, #54, #306, .T. ) ;
#60 = ORIENTED_EDGE ( 'NONE', *, *, #59, .T. ) ;
#61 = EDGE_LOOP ( 'NONE', ( #56, #48, #43, #40 ) ) ;
#62 = EDGE_CURVE ( 'NONE', #57, #58, #324, .T. ) ;
#63 = ORIENTED_EDGE ( 'NONE', *, *, #74, .T. ) ;
#64 = ORIENTED_EDGE ( 'NONE', *, *, #7, .T. ) ;
#65 = ORIENTED_EDGE ( 'NONE', *, *, #59, .F. ) ;
#66 = ORIENTED_EDGE ( 'NONE', *, *, #69, .F. ) ;
#67 = EDGE_LOOP ( 'NONE', ( #75, #63, #65, #66 ) ) ;
#68 = EDGE_CURVE ( 'NONE', #72, #73, #342, .T. ) ;
#69 = EDGE_CURVE ( 'NONE', #73, #55, #317, .T. ) ;
#70 = ADVANCED_FACE ( 'NONE', ( #387 ), #340, .F. ) ;
#71 = EDGE_CURVE ( 'NONE', #73, #72, #341, .T. ) ;
#72 = VERTEX_POINT ( 'NONE', #361 ) ;
#73 = VERTEX_POINT ( 'NONE', #360 ) ;
#74 = EDGE_CURVE ( 'NONE', #72, #54, #291, .T. ) ;
#75 = ORIENTED_EDGE ( 'NONE', *, *, #71, .T. ) ;
#76 = EDGE_CURVE ( 'NONE', #41, #44, #332, .T. ) ;
#77 = DIRECTION ( 'NONE',  ( -1.224606353822377300E-016, 1.000000000000000000, 0.0000000000000000000 ) ) ;
#78 = DIRECTION ( 'NONE',  ( 1.000000000000000000, 1.224606353822377300E-016, 3.749275628560213600E-032 ) ) ;
#79 = CARTESIAN_POINT ( 'NONE',  ( 0.0000000000000000000, 2.541388148969640400E-015, 36.25000000000000700 ) ) ;
#80 = AXIS2_PLACEMENT_3D ( 'NONE', #79, #78, #77 ) ;
#81 = ADVANCED_FACE ( 'NONE', ( #327 ), #346, .T. ) ;
#82 = CIRCLE ( 'NONE', #80, 34.50000000000000000 ) ;
#83 =( NAMED_UNIT ( * ) SI_UNIT ( $, .STERADIAN. ) SOLID_ANGLE_UNIT ( ) );
#84 = DIRECTION ( 'NONE',  ( 0.0000000000000000000, 1.000000000000000000, 3.073328992872296400E-016 ) ) ;
#85 = DIRECTION ( 'NONE',  ( -0.0000000000000000000, 3.061616997868383100E-016, -1.000000000000000000 ) ) ;
#86 = AXIS2_PLACEMENT_3D ( 'NONE', #121, #85, #84 ) ;
#87 = UNCERTAINTY_MEASURE_WITH_UNIT (LENGTH_MEASURE( 1.000000000000000100E-005 ), #130, 'distance_accuracy_value', 'NONE');
#88 = SURFACE_STYLE_USAGE ( .BOTH. , #89 ) ;
#89 = SURFACE_SIDE_STYLE ('',( #115 ) ) ;
#90 = UNCERTAINTY_MEASURE_WITH_UNIT (LENGTH_MEASURE( 1.000000000000000100E-005 ), #95, 'distance_accuracy_value', 'NONE');
#91 = FILL_AREA_STYLE ('',( #96 ) ) ;
#92 = FILL_AREA_STYLE_COLOUR ( '', #93 ) ;
#93 = COLOUR_RGB ( '',0.7529411764705882200, 0.7529411764705882200, 0.7529411764705882200 ) ;
#94 = DIRECTION ( 'NONE',  ( 0.0000000000000000000, 1.000000000000000000, 3.107937555406665100E-016 ) ) ;
#95 =( LENGTH_UNIT ( ) NAMED_UNIT ( * ) SI_UNIT ( .MILLI., .METRE. ) );
#96 = FILL_AREA_STYLE_COLOUR ( '', #127 ) ;
#97 = FACE_OUTER_BOUND ( 'NONE', #35, .T. ) ;
#98 = DIRECTION ( 'NONE',  ( 0.0000000000000000000, 1.000000000000000000, 2.731847993664262700E-016 ) ) ;
#99 = DIRECTION ( 'NONE',  ( -0.0000000000000000000, 3.061616997868383100E-016, -1.000000000000000000 ) ) ;
#100 = AXIS2_PLACEMENT_3D ( 'NONE', #114, #99, #98 ) ;
#101 = CIRCLE ( 'NONE', #100, 12.70000000000000100 ) ;
#102 = MECHANICAL_DESIGN_GEOMETRIC_PRESENTATION_REPRESENTATION (  '', ( #104 ), #128 ) ;
#103 = PRESENTATION_LAYER_ASSIGNMENT (  '', '', ( #104 ) ) ;
#104 = STYLED_ITEM ( 'NONE', ( #105 ), #18 ) ;
#105 = PRESENTATION_STYLE_ASSIGNMENT (( #106 ) ) ;
#106 = SURFACE_STYLE_USAGE ( .BOTH. , #107 ) ;
#107 = SURFACE_SIDE_STYLE ('',( #108 ) ) ;
#108 = SURFACE_STYLE_FILL_AREA ( #109 ) ;
#109 = FILL_AREA_STYLE ('',( #92 ) ) ;
#110 = DIRECTION ( 'NONE',  ( -0.0000000000000000000, 3.061616997868383100E-016, -1.000000000000000000 ) ) ;
#111 = CARTESIAN_POINT ( 'NONE',  ( 0.0000000000000000000, 1.775983899502545100E-015, -1.750000000000001600 ) ) ;
#112 = AXIS2_PLACEMENT_3D ( 'NONE', #111, #110, #94 ) ;
#113 = CIRCLE ( 'NONE', #112, 12.55857864376268800 ) ;
#114 = CARTESIAN_POINT ( 'NONE',  ( 0.0000000000000000000, 2.304250726929069400E-017, 3.975541089736959000 ) ) ;
#115 = SURFACE_STYLE_FILL_AREA ( #91 ) ;
#116 = MECHANICAL_DESIGN_GEOMETRIC_PRESENTATION_REPRESENTATION (  '', ( #119 ), #123 ) ;
#117 = PRESENTATION_STYLE_ASSIGNMENT (( #88 ) ) ;
#118 =( NAMED_UNIT ( * ) PLANE_ANGLE_UNIT ( ) SI_UNIT ( $, .RADIAN. ) );
#119 = STYLED_ITEM ( 'NONE', ( #117 ), #8 ) ;
#120 = FACE_OUTER_BOUND ( 'NONE', #32, .T. ) ;
#121 = CARTESIAN_POINT ( 'NONE',  ( 0.0000000000000000000, 1.775983899502544700E-015, -1.750000000000000000 ) ) ;
#122 = CYLINDRICAL_SURFACE ( 'NONE', #86, 12.69999999999999900 ) ;
#123 =( GEOMETRIC_REPRESENTATION_CONTEXT ( 3 ) GLOBAL_UNCERTAINTY_ASSIGNED_CONTEXT ( ( #90 ) ) GLOBAL_UNIT_ASSIGNED_CONTEXT ( ( #95, #118, #126 ) ) REPRESENTATION_CONTEXT ( 'NONE', 'WORKASPACE' ) );
#124 =( NAMED_UNIT ( * ) SI_UNIT ( $, .STERADIAN. ) SOLID_ANGLE_UNIT ( ) );
#125 =( NAMED_UNIT ( * ) PLANE_ANGLE_UNIT ( ) SI_UNIT ( $, .RADIAN. ) );
#126 =( NAMED_UNIT ( * ) SI_UNIT ( $, .STERADIAN. ) SOLID_ANGLE_UNIT ( ) );
#127 = COLOUR_RGB ( '',0.7529411764705882200, 0.7529411764705882200, 0.7529411764705882200 ) ;
#128 =( GEOMETRIC_REPRESENTATION_CONTEXT ( 3 ) GLOBAL_UNCERTAINTY_ASSIGNED_CONTEXT ( ( #87 ) ) GLOBAL_UNIT_ASSIGNED_CONTEXT ( ( #130, #125, #124 ) ) REPRESENTATION_CONTEXT ( 'NONE', 'WORKASPACE' ) );
#129 = PRESENTATION_LAYER_ASSIGNMENT (  '', '', ( #119 ) ) ;
#130 =( LENGTH_UNIT ( ) NAMED_UNIT ( * ) SI_UNIT ( .MILLI., .METRE. ) );
#131 = DIRECTION ( 'NONE',  ( 0.0000000000000000000, 1.000000000000000000, 2.731847993664262700E-016 ) ) ;
#132 = CONICAL_SURFACE ( 'NONE', #143, 12.70000000000000100, 0.7853981633974391800 ) ;
#133 = FILL_AREA_STYLE ('',( #144 ) ) ;
#134 = FACE_OUTER_BOUND ( 'NONE', #19, .T. ) ;
#135 =( NAMED_UNIT ( * ) PLANE_ANGLE_UNIT ( ) SI_UNIT ( $, .RADIAN. ) );
#136 =( LENGTH_UNIT ( ) NAMED_UNIT ( * ) SI_UNIT ( .MILLI., .METRE. ) );
#137 = MECHANICAL_DESIGN_GEOMETRIC_PRESENTATION_REPRESENTATION (  '', ( #147 ), #155 ) ;
#138 = PRESENTATION_LAYER_ASSIGNMENT (  '', '', ( #147 ) ) ;
#139 = SURFACE_STYLE_USAGE ( .BOTH. , #140 ) ;
#140 = SURFACE_SIDE_STYLE ('',( #141 ) ) ;
#141 = SURFACE_STYLE_FILL_AREA ( #133 ) ;
#142 = CARTESIAN_POINT ( 'NONE',  ( 0.0000000000000000000, 2.304250726929069400E-017, 3.975541089736959000 ) ) ;
#143 = AXIS2_PLACEMENT_3D ( 'NONE', #142, #146, #131 ) ;
#144 = FILL_AREA_STYLE_COLOUR ( '', #145 ) ;
#145 = COLOUR_RGB ( '',0.7529411764705882200, 0.7529411764705882200, 0.7529411764705882200 ) ;
#146 = DIRECTION ( 'NONE',  ( -0.0000000000000000000, 3.061616997868383100E-016, -1.000000000000000000 ) ) ;
#147 = STYLED_ITEM ( 'NONE', ( #148 ), #25 ) ;
#148 = PRESENTATION_STYLE_ASSIGNMENT (( #139 ) ) ;
#149 = AXIS2_PLACEMENT_3D ( 'NONE', #153, #152, #151 ) ;
#150 = CONICAL_SURFACE ( 'NONE', #149, 12.55857864376268800, 0.7853981633974498300 ) ;
#151 = DIRECTION ( 'NONE',  ( 0.0000000000000000000, -1.000000000000000000, -3.107937555406665100E-016 ) ) ;
#152 = DIRECTION ( 'NONE',  ( 0.0000000000000000000, -3.061616997868383100E-016, 1.000000000000000000 ) ) ;
#153 = CARTESIAN_POINT ( 'NONE',  ( 0.0000000000000000000, 1.775983899502545100E-015, -1.750000000000001600 ) ) ;
#154 = UNCERTAINTY_MEASURE_WITH_UNIT (LENGTH_MEASURE( 1.000000000000000100E-005 ), #136, 'distance_accuracy_value', 'NONE');
#155 =( GEOMETRIC_REPRESENTATION_CONTEXT ( 3 ) GLOBAL_UNCERTAINTY_ASSIGNED_CONTEXT ( ( #154 ) ) GLOBAL_UNIT_ASSIGNED_CONTEXT ( ( #136, #135, #83 ) ) REPRESENTATION_CONTEXT ( 'NONE', 'WORKASPACE' ) );
#156 = CARTESIAN_POINT ( 'NONE',  ( 0.0000000000000000000, 2.541388148969640400E-015, 36.25000000000000700 ) ) ;
#157 = AXIS2_PLACEMENT_3D ( 'NONE', #156, #200, #199 ) ;
#158 =( NAMED_UNIT ( * ) SI_UNIT ( $, .STERADIAN. ) SOLID_ANGLE_UNIT ( ) );
#159 =( NAMED_UNIT ( * ) PLANE_ANGLE_UNIT ( ) SI_UNIT ( $, .RADIAN. ) );
#160 = STYLED_ITEM ( 'NONE', ( #161 ), #28 ) ;
#161 = PRESENTATION_STYLE_ASSIGNMENT (( #175 ) ) ;
#162 =( LENGTH_UNIT ( ) NAMED_UNIT ( * ) SI_UNIT ( .MILLI., .METRE. ) );
#163 = CARTESIAN_POINT ( 'NONE',  ( 0.0000000000000000000, -12.55857864376268700, -1.750000000000005600 ) ) ;
#164 = CARTESIAN_POINT ( 'NONE',  ( 1.546590794783699500E-015, 12.55857864376269000, -1.749999999999997600 ) ) ;
#165 = CARTESIAN_POINT ( 'NONE',  ( 0.0000000000000000000, 12.70000000000000100, 3.975541089736962500 ) ) ;
#166 = CARTESIAN_POINT ( 'NONE',  ( 1.555250069354419300E-015, -12.70000000000000100, 3.975541089736955900 ) ) ;
#167 = DIRECTION ( 'NONE',  ( 8.659274570719367700E-017, 0.7071067811865483500, 0.7071067811865466800 ) ) ;
#168 = VECTOR ( 'NONE', #167, 1000.000000000000000 ) ;
#169 = CARTESIAN_POINT ( 'NONE',  ( 1.537931520212980100E-015, 12.55857864376269000, -1.749999999999997600 ) ) ;
#170 = LINE ( 'NONE', #169, #168 ) ;
#171 = DIRECTION ( 'NONE',  ( 0.0000000000000000000, 1.000000000000000000, 2.731847993664262700E-016 ) ) ;
#172 = DIRECTION ( 'NONE',  ( -0.0000000000000000000, 3.061616997868383100E-016, -1.000000000000000000 ) ) ;
#173 = CARTESIAN_POINT ( 'NONE',  ( 0.0000000000000000000, 2.304250726929069400E-017, 3.975541089736959000 ) ) ;
#174 = FACE_OUTER_BOUND ( 'NONE', #5, .T. ) ;
#175 = SURFACE_STYLE_USAGE ( .BOTH. , #176 ) ;
#176 = SURFACE_SIDE_STYLE ('',( #264 ) ) ;
#177 = FILL_AREA_STYLE ('',( #184 ) ) ;
#178 = COLOUR_RGB ( '',0.7529411764705882200, 0.7529411764705882200, 0.7529411764705882200 ) ;
#179 = FACE_OUTER_BOUND ( 'NONE', #67, .T. ) ;
#180 = DIRECTION ( 'NONE',  ( -0.0000000000000000000, 3.061616997868383100E-016, -1.000000000000000000 ) ) ;
#181 = VECTOR ( 'NONE', #180, 1000.000000000000000 ) ;
#182 = CARTESIAN_POINT ( 'NONE',  ( 1.555250069354419100E-015, -12.69999999999999800, -1.750000000000004000 ) ) ;
#183 = LINE ( 'NONE', #182, #181 ) ;
#184 = FILL_AREA_STYLE_COLOUR ( '', #178 ) ;
#185 =( GEOMETRIC_REPRESENTATION_CONTEXT ( 3 ) GLOBAL_UNCERTAINTY_ASSIGNED_CONTEXT ( ( #186 ) ) GLOBAL_UNIT_ASSIGNED_CONTEXT ( ( #241, #240, #239 ) ) REPRESENTATION_CONTEXT ( 'NONE', 'WORKASPACE' ) );
#186 = UNCERTAINTY_MEASURE_WITH_UNIT (LENGTH_MEASURE( 1.000000000000000100E-005 ), #241, 'distance_accuracy_value', 'NONE');
#187 = CARTESIAN_POINT ( 'NONE',  ( 1.555250069354419100E-015, -12.69999999999999600, -1.608578643762696100 ) ) ;
#188 = DIRECTION ( 'NONE',  ( 0.0000000000000000000, -0.7071067811865489100, 0.7071067811865462400 ) ) ;
#189 = VECTOR ( 'NONE', #188, 999.9999999999998900 ) ;
#190 = CARTESIAN_POINT ( 'NONE',  ( 0.0000000000000000000, -12.55857864376268700, -1.750000000000005600 ) ) ;
#191 = LINE ( 'NONE', #190, #189 ) ;
#192 = DIRECTION ( 'NONE',  ( 0.0000000000000000000, 1.000000000000000000, 3.073328992872296400E-016 ) ) ;
#193 = DIRECTION ( 'NONE',  ( -0.0000000000000000000, 3.061616997868383100E-016, -1.000000000000000000 ) ) ;
#194 = CARTESIAN_POINT ( 'NONE',  ( 0.0000000000000000000, 1.775983899502544700E-015, -1.750000000000000000 ) ) ;
#195 = AXIS2_PLACEMENT_3D ( 'NONE', #194, #193, #192 ) ;
#196 = CYLINDRICAL_SURFACE ( 'NONE', #195, 12.69999999999999900 ) ;
#197 =( GEOMETRIC_REPRESENTATION_CONTEXT ( 3 ) GLOBAL_UNCERTAINTY_ASSIGNED_CONTEXT ( ( #221 ) ) GLOBAL_UNIT_ASSIGNED_CONTEXT ( ( #224, #223, #222 ) ) REPRESENTATION_CONTEXT ( 'NONE', 'WORKASPACE' ) );
#198 = CIRCLE ( 'NONE', #214, 34.50000000000000000 ) ;
#199 = DIRECTION ( 'NONE',  ( 0.0000000000000000000, 1.000000000000000000, 4.022547190670856700E-016 ) ) ;
#200 = DIRECTION ( 'NONE',  ( 1.000000000000000000, 0.0000000000000000000, -0.0000000000000000000 ) ) ;
#201 = FILL_AREA_STYLE_COLOUR ( '', #220 ) ;
#202 = PRESENTATION_LAYER_ASSIGNMENT (  '', '', ( #203 ) ) ;
#203 = STYLED_ITEM ( 'NONE', ( #204 ), #37 ) ;
#204 = PRESENTATION_STYLE_ASSIGNMENT (( #205 ) ) ;
#205 = SURFACE_STYLE_USAGE ( .BOTH. , #206 ) ;
#206 = SURFACE_SIDE_STYLE ('',( #207 ) ) ;
#207 = SURFACE_STYLE_FILL_AREA ( #208 ) ;
#208 = FILL_AREA_STYLE ('',( #210 ) ) ;
#209 = COLOUR_RGB ( '',0.7529411764705882200, 0.7529411764705882200, 0.7529411764705882200 ) ;
#210 = FILL_AREA_STYLE_COLOUR ( '', #209 ) ;
#211 = DIRECTION ( 'NONE',  ( 0.0000000000000000000, 0.0000000000000000000, 1.000000000000000000 ) ) ;
#212 = DIRECTION ( 'NONE',  ( -1.000000000000000000, 0.0000000000000000000, 0.0000000000000000000 ) ) ;
#213 = CARTESIAN_POINT ( 'NONE',  ( 0.0000000000000000000, 2.541388148969640400E-015, 36.25000000000000700 ) ) ;
#214 = AXIS2_PLACEMENT_3D ( 'NONE', #213, #212, #211 ) ;
#215 = FACE_OUTER_BOUND ( 'NONE', #22, .T. ) ;
#216 = UNCERTAINTY_MEASURE_WITH_UNIT (LENGTH_MEASURE( 1.000000000000000100E-005 ), #162, 'distance_accuracy_value', 'NONE');
#217 = CARTESIAN_POINT ( 'NONE',  ( 0.0000000000000000000, 1.521641275195916200E-014, 1.750000000000001600 ) ) ;
#218 =( GEOMETRIC_REPRESENTATION_CONTEXT ( 3 ) GLOBAL_UNCERTAINTY_ASSIGNED_CONTEXT ( ( #219 ) ) GLOBAL_UNIT_ASSIGNED_CONTEXT ( ( #226, #159, #158 ) ) REPRESENTATION_CONTEXT ( 'NONE', 'WORKASPACE' ) );
#219 = UNCERTAINTY_MEASURE_WITH_UNIT (LENGTH_MEASURE( 1.000000000000000100E-005 ), #226, 'distance_accuracy_value', 'NONE');
#220 = COLOUR_RGB ( '',0.7529411764705882200, 0.7529411764705882200, 0.7529411764705882200 ) ;
#221 = UNCERTAINTY_MEASURE_WITH_UNIT (LENGTH_MEASURE( 1.000000000000000100E-005 ), #224, 'distance_accuracy_value', 'NONE');
#222 =( NAMED_UNIT ( * ) SI_UNIT ( $, .STERADIAN. ) SOLID_ANGLE_UNIT ( ) );
#223 =( NAMED_UNIT ( * ) PLANE_ANGLE_UNIT ( ) SI_UNIT ( $, .RADIAN. ) );
#224 =( LENGTH_UNIT ( ) NAMED_UNIT ( * ) SI_UNIT ( .MILLI., .METRE. ) );
#225 = MECHANICAL_DESIGN_GEOMETRIC_PRESENTATION_REPRESENTATION (  '', ( #229 ), #197 ) ;
#226 =( LENGTH_UNIT ( ) NAMED_UNIT ( * ) SI_UNIT ( .MILLI., .METRE. ) );
#227 = MECHANICAL_DESIGN_GEOMETRIC_PRESENTATION_REPRESENTATION (  '', ( #203 ), #218 ) ;
#228 = PRESENTATION_LAYER_ASSIGNMENT (  '', '', ( #229 ) ) ;
#229 = STYLED_ITEM ( 'NONE', ( #230 ), #38 ) ;
#230 = PRESENTATION_STYLE_ASSIGNMENT (( #231 ) ) ;
#231 = SURFACE_STYLE_USAGE ( .BOTH. , #232 ) ;
#232 = SURFACE_SIDE_STYLE ('',( #233 ) ) ;
#233 = SURFACE_STYLE_FILL_AREA ( #234 ) ;
#234 = FILL_AREA_STYLE ('',( #235 ) ) ;
#235 = FILL_AREA_STYLE_COLOUR ( '', #267 ) ;
#236 = DIRECTION ( 'NONE',  ( 0.0000000000000000000, 1.000000000000000000, 3.061616997868383100E-016 ) ) ;
#237 = DIRECTION ( 'NONE',  ( -0.0000000000000000000, 3.061616997868383100E-016, -1.000000000000000000 ) ) ;
#238 = CARTESIAN_POINT ( 'NONE',  ( 0.0000000000000000000, 1.775983899502545100E-015, -1.750000000000000900 ) ) ;
#239 =( NAMED_UNIT ( * ) SI_UNIT ( $, .STERADIAN. ) SOLID_ANGLE_UNIT ( ) );
#240 =( NAMED_UNIT ( * ) PLANE_ANGLE_UNIT ( ) SI_UNIT ( $, .RADIAN. ) );
#241 =( LENGTH_UNIT ( ) NAMED_UNIT ( * ) SI_UNIT ( .MILLI., .METRE. ) );
#242 = MECHANICAL_DESIGN_GEOMETRIC_PRESENTATION_REPRESENTATION (  '', ( #244 ), #185 ) ;
#243 = PRESENTATION_LAYER_ASSIGNMENT (  '', '', ( #244 ) ) ;
#244 = STYLED_ITEM ( 'NONE', ( #245 ), #49 ) ;
#245 = PRESENTATION_STYLE_ASSIGNMENT (( #246 ) ) ;
#246 = SURFACE_STYLE_USAGE ( .BOTH. , #247 ) ;
#247 = SURFACE_SIDE_STYLE ('',( #248 ) ) ;
#248 = SURFACE_STYLE_FILL_AREA ( #249 ) ;
#249 = FILL_AREA_STYLE ('',( #255 ) ) ;
#250 = COLOUR_RGB ( '',0.7960784313725489700, 0.8235294117647058400, 0.9372549019607843100 ) ;
#251 = DIRECTION ( 'NONE',  ( -0.0000000000000000000, 3.061616997868383100E-016, -1.000000000000000000 ) ) ;
#252 = VECTOR ( 'NONE', #251, 1000.000000000000000 ) ;
#253 = CARTESIAN_POINT ( 'NONE',  ( 0.0000000000000000000, 12.70000000000000100, -1.749999999999996200 ) ) ;
#254 = LINE ( 'NONE', #253, #252 ) ;
#255 = FILL_AREA_STYLE_COLOUR ( '', #250 ) ;
#256 = CARTESIAN_POINT ( 'NONE',  ( 0.0000000000000000000, 12.69999999999999900, -1.608578643762688300 ) ) ;
#257 = DIRECTION ( 'NONE',  ( 0.0000000000000000000, 1.000000000000000000, 3.073328992872296900E-016 ) ) ;
#258 = DIRECTION ( 'NONE',  ( -0.0000000000000000000, 3.061616997868383100E-016, -1.000000000000000000 ) ) ;
#259 = CARTESIAN_POINT ( 'NONE',  ( 0.0000000000000000000, 1.732686096690770600E-015, -1.608578643762692300 ) ) ;
#260 = AXIS2_PLACEMENT_3D ( 'NONE', #259, #258, #257 ) ;
#261 = CIRCLE ( 'NONE', #260, 12.69999999999999800 ) ;
#262 = MECHANICAL_DESIGN_GEOMETRIC_PRESENTATION_REPRESENTATION (  '', ( #160 ), #272 ) ;
#263 = PRESENTATION_LAYER_ASSIGNMENT (  '', '', ( #160 ) ) ;
#264 = SURFACE_STYLE_FILL_AREA ( #265 ) ;
#265 = FILL_AREA_STYLE ('',( #201 ) ) ;
#266 = AXIS2_PLACEMENT_3D ( 'NONE', #238, #237, #236 ) ;
#267 = COLOUR_RGB ( '',0.7529411764705882200, 0.7529411764705882200, 0.7529411764705882200 ) ;
#268 = FACE_OUTER_BOUND ( 'NONE', #30, .T. ) ;
#269 = PLANE ( 'NONE',  #266 ) ;
#270 =( NAMED_UNIT ( * ) PLANE_ANGLE_UNIT ( ) SI_UNIT ( $, .RADIAN. ) );
#271 = SPHERICAL_SURFACE ( 'NONE', #157, 34.50000000000000000 ) ;
#272 =( GEOMETRIC_REPRESENTATION_CONTEXT ( 3 ) GLOBAL_UNCERTAINTY_ASSIGNED_CONTEXT ( ( #216 ) ) GLOBAL_UNIT_ASSIGNED_CONTEXT ( ( #162, #270, #273 ) ) REPRESENTATION_CONTEXT ( 'NONE', 'WORKASPACE' ) );
#273 =( NAMED_UNIT ( * ) SI_UNIT ( $, .STERADIAN. ) SOLID_ANGLE_UNIT ( ) );
#274 = CONICAL_SURFACE ( 'NONE', #275, 12.70000000000000100, 0.7853981633974391800 ) ;
#275 = AXIS2_PLACEMENT_3D ( 'NONE', #173, #172, #171 ) ;
#276 =( GEOMETRIC_REPRESENTATION_CONTEXT ( 3 ) GLOBAL_UNCERTAINTY_ASSIGNED_CONTEXT ( ( #277 ) ) GLOBAL_UNIT_ASSIGNED_CONTEXT ( ( #280, #279, #278 ) ) REPRESENTATION_CONTEXT ( 'NONE', 'WORKASPACE' ) );
#277 = UNCERTAINTY_MEASURE_WITH_UNIT (LENGTH_MEASURE( 1.000000000000000100E-005 ), #280, 'distance_accuracy_value', 'NONE');
#278 =( NAMED_UNIT ( * ) SI_UNIT ( $, .STERADIAN. ) SOLID_ANGLE_UNIT ( ) );
#279 =( NAMED_UNIT ( * ) PLANE_ANGLE_UNIT ( ) SI_UNIT ( $, .RADIAN. ) );
#280 =( LENGTH_UNIT ( ) NAMED_UNIT ( * ) SI_UNIT ( .MILLI., .METRE. ) );
#281 = MECHANICAL_DESIGN_GEOMETRIC_PRESENTATION_REPRESENTATION (  '', ( #283 ), #276 ) ;
#282 = PRESENTATION_LAYER_ASSIGNMENT (  '', '', ( #283 ) ) ;
#283 = STYLED_ITEM ( 'NONE', ( #284 ), #52 ) ;
#284 = PRESENTATION_STYLE_ASSIGNMENT (( #285 ) ) ;
#285 = SURFACE_STYLE_USAGE ( .BOTH. , #286 ) ;
#286 = SURFACE_SIDE_STYLE ('',( #287 ) ) ;
#287 = SURFACE_STYLE_FILL_AREA ( #177 ) ;
#288 = DIRECTION ( 'NONE',  ( 8.659274570719274100E-017, -0.7071067811865408000, -0.7071067811865541200 ) ) ;
#289 = VECTOR ( 'NONE', #288, 1000.000000000000100 ) ;
#290 = CARTESIAN_POINT ( 'NONE',  ( 1.555250069354419300E-015, -12.70000000000000100, 3.975541089736955900 ) ) ;
#291 = LINE ( 'NONE', #290, #289 ) ;
#292 = CARTESIAN_POINT ( 'NONE',  ( 0.0000000000000000000, 1.775983899502545100E-015, -1.750000000000001600 ) ) ;
#293 = AXIS2_PLACEMENT_3D ( 'NONE', #292, #304, #303 ) ;
#294 =( NAMED_UNIT ( * ) SI_UNIT ( $, .STERADIAN. ) SOLID_ANGLE_UNIT ( ) );
#295 =( NAMED_UNIT ( * ) PLANE_ANGLE_UNIT ( ) SI_UNIT ( $, .RADIAN. ) );
#296 = DIRECTION ( 'NONE',  ( 0.0000000000000000000, 1.000000000000000000, 4.022547190670856700E-016 ) ) ;
#297 = DIRECTION ( 'NONE',  ( 1.000000000000000000, 0.0000000000000000000, -0.0000000000000000000 ) ) ;
#298 = CARTESIAN_POINT ( 'NONE',  ( 0.0000000000000000000, 2.541388148969640400E-015, 36.25000000000000700 ) ) ;
#299 = AXIS2_PLACEMENT_3D ( 'NONE', #298, #297, #296 ) ;
#300 = AXIS2_PLACEMENT_3D ( 'NONE', #359, #319, #305 ) ;
#301 =( GEOMETRIC_REPRESENTATION_CONTEXT ( 3 ) GLOBAL_UNCERTAINTY_ASSIGNED_CONTEXT ( ( #320 ) ) GLOBAL_UNIT_ASSIGNED_CONTEXT ( ( #339, #372, #321 ) ) REPRESENTATION_CONTEXT ( 'NONE', 'WORKASPACE' ) );
#302 = CARTESIAN_POINT ( 'NONE',  ( 0.0000000000000000000, -2.025529554248473800E-017, 4.116962445974271700 ) ) ;
#303 = DIRECTION ( 'NONE',  ( 0.0000000000000000000, 1.000000000000000000, 3.107937555406665100E-016 ) ) ;
#304 = DIRECTION ( 'NONE',  ( -0.0000000000000000000, 3.061616997868383100E-016, -1.000000000000000000 ) ) ;
#305 = DIRECTION ( 'NONE',  ( 0.0000000000000000000, 1.000000000000000000, 2.731847993664262700E-016 ) ) ;
#306 = CIRCLE ( 'NONE', #300, 12.70000000000000100 ) ;
#307 = DIRECTION ( 'NONE',  ( 1.000000000000000000, 0.0000000000000000000, 0.0000000000000000000 ) ) ;
#308 = DIRECTION ( 'NONE',  ( 0.0000000000000000000, 0.0000000000000000000, 1.000000000000000000 ) ) ;
#309 =( GEOMETRIC_REPRESENTATION_CONTEXT ( 3 ) GLOBAL_UNCERTAINTY_ASSIGNED_CONTEXT ( ( #310 ) ) GLOBAL_UNIT_ASSIGNED_CONTEXT ( ( #347, #312, #311 ) ) REPRESENTATION_CONTEXT ( 'NONE', 'WORKASPACE' ) );
#310 = UNCERTAINTY_MEASURE_WITH_UNIT (LENGTH_MEASURE( 1.000000000000000100E-005 ), #347, 'distance_accuracy_value', 'NONE');
#311 =( NAMED_UNIT ( * ) SI_UNIT ( $, .STERADIAN. ) SOLID_ANGLE_UNIT ( ) );
#312 =( NAMED_UNIT ( * ) PLANE_ANGLE_UNIT ( ) SI_UNIT ( $, .RADIAN. ) );
#313 =( GEOMETRIC_REPRESENTATION_CONTEXT ( 3 ) GLOBAL_UNCERTAINTY_ASSIGNED_CONTEXT ( ( #314 ) ) GLOBAL_UNIT_ASSIGNED_CONTEXT ( ( #377, #295, #294 ) ) REPRESENTATION_CONTEXT ( 'NONE', 'WORKASPACE' ) );
#314 = UNCERTAINTY_MEASURE_WITH_UNIT (LENGTH_MEASURE( 1.000000000000000100E-005 ), #377, 'distance_accuracy_value', 'NONE');
#315 = VECTOR ( 'NONE', #388, 1000.000000000000100 ) ;
#316 = CARTESIAN_POINT ( 'NONE',  ( 0.0000000000000000000, 12.70000000000000100, 3.975541089736962500 ) ) ;
#317 = LINE ( 'NONE', #316, #315 ) ;
#318 = FILL_AREA_STYLE ('',( #385 ) ) ;
#319 = DIRECTION ( 'NONE',  ( -0.0000000000000000000, 3.061616997868383100E-016, -1.000000000000000000 ) ) ;
#320 = UNCERTAINTY_MEASURE_WITH_UNIT (LENGTH_MEASURE( 1.000000000000000100E-005 ), #339, 'distance_accuracy_value', 'NONE');
#321 =( NAMED_UNIT ( * ) SI_UNIT ( $, .STERADIAN. ) SOLID_ANGLE_UNIT ( ) );
#322 = UNCERTAINTY_MEASURE_WITH_UNIT (LENGTH_MEASURE( 1.000000000000000100E-005 ), #369, 'distance_accuracy_value', 'NONE');
#323 =( NAMED_UNIT ( * ) SI_UNIT ( $, .STERADIAN. ) SOLID_ANGLE_UNIT ( ) );
#324 = CIRCLE ( 'NONE', #293, 12.55857864376268800 ) ;
#325 = FILL_AREA_STYLE_COLOUR ( '', #326 ) ;
#326 = COLOUR_RGB ( '',0.7529411764705882200, 0.7529411764705882200, 0.7529411764705882200 ) ;
#327 = FACE_OUTER_BOUND ( 'NONE', #61, .T. ) ;
#328 = DIRECTION ( 'NONE',  ( 0.0000000000000000000, 1.000000000000000000, 3.073328992872296900E-016 ) ) ;
#329 = DIRECTION ( 'NONE',  ( -0.0000000000000000000, 3.061616997868383100E-016, -1.000000000000000000 ) ) ;
#330 = CARTESIAN_POINT ( 'NONE',  ( 0.0000000000000000000, 1.732686096690770600E-015, -1.608578643762692300 ) ) ;
#331 = AXIS2_PLACEMENT_3D ( 'NONE', #330, #329, #328 ) ;
#332 = CIRCLE ( 'NONE', #331, 12.69999999999999800 ) ;
#333 = FILL_AREA_STYLE ('',( #325 ) ) ;
#334 = PRODUCT_DEFINITION_SHAPE ( 'NONE', 'NONE',  #391 ) ;
#335 = FILL_AREA_STYLE_COLOUR ( '', #356 ) ;
#336 = APPLICATION_CONTEXT ( 'automotive_design' ) ;
#337 = ADVANCED_BREP_SHAPE_REPRESENTATION ( '3503-E0W', ( #49, #345 ), #338 ) ;
#338 =( GEOMETRIC_REPRESENTATION_CONTEXT ( 3 ) GLOBAL_UNCERTAINTY_ASSIGNED_CONTEXT ( ( #322 ) ) GLOBAL_UNIT_ASSIGNED_CONTEXT ( ( #369, #368, #323 ) ) REPRESENTATION_CONTEXT ( 'NONE', 'WORKASPACE' ) );
#339 =( LENGTH_UNIT ( ) NAMED_UNIT ( * ) SI_UNIT ( .MILLI., .METRE. ) );
#340 = SPHERICAL_SURFACE ( 'NONE', #299, 34.50000000000000000 ) ;
#341 = CIRCLE ( 'NONE', #357, 12.55857864376269200 ) ;
#342 = CIRCLE ( 'NONE', #401, 12.55857864376269200 ) ;
#343 = CARTESIAN_POINT ( 'NONE',  ( 0.0000000000000000000, 1.775983899502545100E-015, -1.750000000000001600 ) ) ;
#344 = AXIS2_PLACEMENT_3D ( 'NONE', #343, #371, #370 ) ;
#345 = AXIS2_PLACEMENT_3D ( 'NONE', #358, #308, #307 ) ;
#346 = CONICAL_SURFACE ( 'NONE', #344, 12.55857864376268800, 0.7853981633974498300 ) ;
#347 =( LENGTH_UNIT ( ) NAMED_UNIT ( * ) SI_UNIT ( .MILLI., .METRE. ) );
#348 = MECHANICAL_DESIGN_GEOMETRIC_PRESENTATION_REPRESENTATION (  '', ( #350 ), #309 ) ;
#349 = PRESENTATION_LAYER_ASSIGNMENT (  '', '', ( #350 ) ) ;
#350 = STYLED_ITEM ( 'NONE', ( #351 ), #337 ) ;
#351 = PRESENTATION_STYLE_ASSIGNMENT (( #352 ) ) ;
#352 = SURFACE_STYLE_USAGE ( .BOTH. , #353 ) ;
#353 = SURFACE_SIDE_STYLE ('',( #354 ) ) ;
#354 = SURFACE_STYLE_FILL_AREA ( #355 ) ;
#355 = FILL_AREA_STYLE ('',( #335 ) ) ;
#356 = COLOUR_RGB ( '',0.7960784313725489700, 0.8235294117647058400, 0.9372549019607843100 ) ;
#357 = AXIS2_PLACEMENT_3D ( 'NONE', #364, #363, #362 ) ;
#358 = CARTESIAN_POINT ( 'NONE',  ( 0.0000000000000000000, 0.0000000000000000000, 0.0000000000000000000 ) ) ;
#359 = CARTESIAN_POINT ( 'NONE',  ( 0.0000000000000000000, 2.304250726929069400E-017, 3.975541089736959000 ) ) ;
#360 = CARTESIAN_POINT ( 'NONE',  ( 0.0000000000000000000, 12.55857864376269700, 4.116962445974278000 ) ) ;
#361 = CARTESIAN_POINT ( 'NONE',  ( 1.537931520212981300E-015, -12.55857864376268500, 4.116962445974267300 ) ) ;
#362 = DIRECTION ( 'NONE',  ( 0.0000000000000000000, 1.000000000000000000, 2.762611160361479200E-016 ) ) ;
#363 = DIRECTION ( 'NONE',  ( -0.0000000000000000000, 3.061616997868383100E-016, -1.000000000000000000 ) ) ;
#364 = CARTESIAN_POINT ( 'NONE',  ( 0.0000000000000000000, -2.025529554248473800E-017, 4.116962445974271700 ) ) ;
#365 = MECHANICAL_DESIGN_GEOMETRIC_PRESENTATION_REPRESENTATION (  '', ( #367 ), #301 ) ;
#366 = PRESENTATION_LAYER_ASSIGNMENT (  '', '', ( #367 ) ) ;
#367 = STYLED_ITEM ( 'NONE', ( #373 ), #70 ) ;
#368 =( NAMED_UNIT ( * ) PLANE_ANGLE_UNIT ( ) SI_UNIT ( $, .RADIAN. ) );
#369 =( LENGTH_UNIT ( ) NAMED_UNIT ( * ) SI_UNIT ( .MILLI., .METRE. ) );
#370 = DIRECTION ( 'NONE',  ( 0.0000000000000000000, -1.000000000000000000, -3.107937555406665100E-016 ) ) ;
#371 = DIRECTION ( 'NONE',  ( 0.0000000000000000000, -3.061616997868383100E-016, 1.000000000000000000 ) ) ;
#372 =( NAMED_UNIT ( * ) PLANE_ANGLE_UNIT ( ) SI_UNIT ( $, .RADIAN. ) );
#373 = PRESENTATION_STYLE_ASSIGNMENT (( #374 ) ) ;
#374 = SURFACE_STYLE_USAGE ( .BOTH. , #375 ) ;
#375 = SURFACE_SIDE_STYLE ('',( #376 ) ) ;
#376 = SURFACE_STYLE_FILL_AREA ( #318 ) ;
#377 =( LENGTH_UNIT ( ) NAMED_UNIT ( * ) SI_UNIT ( .MILLI., .METRE. ) );
#378 = MECHANICAL_DESIGN_GEOMETRIC_PRESENTATION_REPRESENTATION (  '', ( #380 ), #313 ) ;
#379 = PRESENTATION_LAYER_ASSIGNMENT (  '', '', ( #380 ) ) ;
#380 = STYLED_ITEM ( 'NONE', ( #381 ), #81 ) ;
#381 = PRESENTATION_STYLE_ASSIGNMENT (( #382 ) ) ;
#382 = SURFACE_STYLE_USAGE ( .BOTH. , #383 ) ;
#383 = SURFACE_SIDE_STYLE ('',( #384 ) ) ;
#384 = SURFACE_STYLE_FILL_AREA ( #333 ) ;
#385 = FILL_AREA_STYLE_COLOUR ( '', #386 ) ;
#386 = COLOUR_RGB ( '',0.7529411764705882200, 0.7529411764705882200, 0.7529411764705882200 ) ;
#387 = FACE_OUTER_BOUND ( 'NONE', #2, .T. ) ;
#388 = DIRECTION ( 'NONE',  ( 0.0000000000000000000, 0.7071067811865412400, -0.7071067811865536800 ) ) ;
#389 = PRODUCT_RELATED_PRODUCT_CATEGORY ( 'part', '', ( #396 ) ) ;
#390 = PRODUCT_DEFINITION_FORMATION_WITH_SPECIFIED_SOURCE ( 'ANY', '', #396, .NOT_KNOWN. ) ;
#391 = PRODUCT_DEFINITION ( 'UNKNOWN', '', #390, #392 ) ;
#392 = PRODUCT_DEFINITION_CONTEXT ( 'detailed design', #394, 'design' ) ;
#393 = APPLICATION_PROTOCOL_DEFINITION ( 'draft international standard', 'automotive_design', 1998, #394 ) ;
#394 = APPLICATION_CONTEXT ( 'automotive_design' ) ;
#395 = SHAPE_DEFINITION_REPRESENTATION ( #334, #337 ) ;
#396 = PRODUCT ( '3503-E0W', '3503-E0W', '', ( #397 ) ) ;
#397 = PRODUCT_CONTEXT ( 'NONE', #336, 'mechanical' ) ;
#398 = APPLICATION_PROTOCOL_DEFINITION ( 'draft international standard', 'automotive_design', 1998, #336 ) ;
#399 = DIRECTION ( 'NONE',  ( 0.0000000000000000000, 1.000000000000000000, 2.762611160361479200E-016 ) ) ;
#400 = DIRECTION ( 'NONE',  ( -0.0000000000000000000, 3.061616997868383100E-016, -1.000000000000000000 ) ) ;
#401 = AXIS2_PLACEMENT_3D ( 'NONE', #302, #400, #399 ) ;
ENDSEC;
END-ISO-10303-21;
