ISO-10303-21;
HEADER;
FILE_DESCRIPTION (( 'STEP AP214' ),
    '1' );
FILE_NAME ('4564-E0W.STEP',
    '2009-12-21T17:10:30',
    ( ' ' ),
    ( ' ' ),
    'SwSTEP 2.0',
    'SolidWorks 2009',
    '' );
FILE_SCHEMA (( 'AUTOMOTIVE_DESIGN' ));
ENDSEC;

DATA;
#1 = EDGE_CURVE ( 'NONE', #14, #37, #55, .T. ) ;
#2 = CLOSED_SHELL ( 'NONE', ( #24, #33, #41, #49, #40 ) ) ;
#3 = VERTEX_POINT ( 'NONE', #53 ) ;
#4 = EDGE_CURVE ( 'NONE', #45, #37, #80, .T. ) ;
#5 = ORIENTED_EDGE ( 'NONE', *, *, #30, .F. ) ;
#6 = ORIENTED_EDGE ( 'NONE', *, *, #38, .F. ) ;
#7 = EDGE_LOOP ( 'NONE', ( #35, #21, #28, #9 ) ) ;
#8 = ORIENTED_EDGE ( 'NONE', *, *, #1, .F. ) ;
#9 = ORIENTED_EDGE ( 'NONE', *, *, #1, .T. ) ;
#10 = ORIENTED_EDGE ( 'NONE', *, *, #29, .F. ) ;
#11 = ORIENTED_EDGE ( 'NONE', *, *, #44, .T. ) ;
#12 = EDGE_CURVE ( 'NONE', #45, #17, #65, .T. ) ;
#13 = ORIENTED_EDGE ( 'NONE', *, *, #39, .T. ) ;
#14 = VERTEX_POINT ( 'NONE', #61 ) ;
#15 = EDGE_LOOP ( 'NONE', ( #22, #36, #23, #10, #48 ) ) ;
#16 = MANIFOLD_SOLID_BREP ( 'NONE', #2 ) ;
#17 = VERTEX_POINT ( 'NONE', #91 ) ;
#18 = ORIENTED_EDGE ( 'NONE', *, *, #27, .F. ) ;
#19 = ORIENTED_EDGE ( 'NONE', *, *, #30, .T. ) ;
#20 = ORIENTED_EDGE ( 'NONE', *, *, #32, .F. ) ;
#21 = ORIENTED_EDGE ( 'NONE', *, *, #12, .T. ) ;
#22 = ORIENTED_EDGE ( 'NONE', *, *, #38, .T. ) ;
#23 = ORIENTED_EDGE ( 'NONE', *, *, #39, .F. ) ;
#24 = ADVANCED_FACE ( 'NONE', ( #96 ), #137, .T. ) ;
#25 = VERTEX_POINT ( 'NONE', #107 ) ;
#26 = EDGE_LOOP ( 'NONE', ( #6, #5 ) ) ;
#27 = EDGE_CURVE ( 'NONE', #3, #25, #118, .T. ) ;
#28 = ORIENTED_EDGE ( 'NONE', *, *, #29, .T. ) ;
#29 = EDGE_CURVE ( 'NONE', #17, #14, #104, .T. ) ;
#30 = EDGE_CURVE ( 'NONE', #3, #43, #105, .T. ) ;
#31 = ORIENTED_EDGE ( 'NONE', *, *, #4, .T. ) ;
#32 = EDGE_CURVE ( 'NONE', #25, #45, #121, .T. ) ;
#33 = ADVANCED_FACE ( 'NONE', ( #147 ), #134, .T. ) ;
#34 = ORIENTED_EDGE ( 'NONE', *, *, #32, .T. ) ;
#35 = ORIENTED_EDGE ( 'NONE', *, *, #4, .F. ) ;
#36 = ORIENTED_EDGE ( 'NONE', *, *, #27, .T. ) ;
#37 = VERTEX_POINT ( 'NONE', #127 ) ;
#38 = EDGE_CURVE ( 'NONE', #43, #3, #142, .T. ) ;
#39 = EDGE_CURVE ( 'NONE', #14, #25, #158, .T. ) ;
#40 = ADVANCED_FACE ( 'NONE', ( #151 ), #187, .F. ) ;
#41 = ADVANCED_FACE ( 'NONE', ( #175 ), #202, .T. ) ;
#42 = EDGE_LOOP ( 'NONE', ( #18, #19, #11, #47, #20 ) ) ;
#43 = VERTEX_POINT ( 'NONE', #234 ) ;
#44 = EDGE_CURVE ( 'NONE', #43, #17, #236, .T. ) ;
#45 = VERTEX_POINT ( 'NONE', #215 ) ;
#46 = EDGE_LOOP ( 'NONE', ( #13, #34, #31, #8 ) ) ;
#47 = ORIENTED_EDGE ( 'NONE', *, *, #12, .F. ) ;
#48 = ORIENTED_EDGE ( 'NONE', *, *, #44, .F. ) ;
#49 = ADVANCED_FACE ( 'NONE', ( #231 ), #226, .T. ) ;
#50 = AXIS2_PLACEMENT_3D ( 'NONE', #51, #56, #54 ) ;
#51 = CARTESIAN_POINT ( 'NONE',  ( 0.0000000000000000000, 0.0000000000000000000, -6.669999999999999000 ) ) ;
#52 =( GEOMETRIC_REPRESENTATION_CONTEXT ( 3 ) GLOBAL_UNCERTAINTY_ASSIGNED_CONTEXT ( ( #228 ) ) GLOBAL_UNIT_ASSIGNED_CONTEXT ( ( #233, #213, #237 ) ) REPRESENTATION_CONTEXT ( 'NONE', 'WORKASPACE' ) );
#53 = CARTESIAN_POINT ( 'NONE',  ( -2.999999999999999100, 3.673819061467130800E-016, -1.050000000000000500 ) ) ;
#54 = DIRECTION ( 'NONE',  ( 0.0000000000000000000, 0.0000000000000000000, -1.000000000000000000 ) ) ;
#55 = CIRCLE ( 'NONE', #50, 7.719999999999999800 ) ;
#56 = DIRECTION ( 'NONE',  ( 1.000000000000000000, 0.0000000000000000000, 0.0000000000000000000 ) ) ;
#57 = DIRECTION ( 'NONE',  ( 1.000000000000000000, 0.0000000000000000000, 0.0000000000000000000 ) ) ;
#58 = MECHANICAL_DESIGN_GEOMETRIC_PRESENTATION_REPRESENTATION (  '', ( #64 ), #72 ) ;
#59 = CARTESIAN_POINT ( 'NONE',  ( 0.0000000000000000000, 0.0000000000000000000, -6.669999999999999000 ) ) ;
#60 = DIRECTION ( 'NONE',  ( -0.0000000000000000000, -0.0000000000000000000, 1.000000000000000000 ) ) ;
#61 = CARTESIAN_POINT ( 'NONE',  ( 0.0000000000000000000, 2.999999999999997300, 0.4432552323110151000 ) ) ;
#62 = FILL_AREA_STYLE_COLOUR ( '', #75 ) ;
#63 =( LENGTH_UNIT ( ) NAMED_UNIT ( * ) SI_UNIT ( .MILLI., .METRE. ) );
#64 = STYLED_ITEM ( 'NONE', ( #79 ), #16 ) ;
#65 = CIRCLE ( 'NONE', #77, 2.999999999999999100 ) ;
#66 = SURFACE_STYLE_USAGE ( .BOTH. , #67 ) ;
#67 = SURFACE_SIDE_STYLE ('',( #68 ) ) ;
#68 = SURFACE_STYLE_FILL_AREA ( #81 ) ;
#69 =( NAMED_UNIT ( * ) SI_UNIT ( $, .STERADIAN. ) SOLID_ANGLE_UNIT ( ) );
#70 = AXIS2_PLACEMENT_3D ( 'NONE', #59, #74, #78 ) ;
#71 = UNCERTAINTY_MEASURE_WITH_UNIT (LENGTH_MEASURE( 1.000000000000000100E-005 ), #63, 'distance_accuracy_value', 'NONE');
#72 =( GEOMETRIC_REPRESENTATION_CONTEXT ( 3 ) GLOBAL_UNCERTAINTY_ASSIGNED_CONTEXT ( ( #71 ) ) GLOBAL_UNIT_ASSIGNED_CONTEXT ( ( #63, #82, #69 ) ) REPRESENTATION_CONTEXT ( 'NONE', 'WORKASPACE' ) );
#73 = CARTESIAN_POINT ( 'NONE',  ( 0.0000000000000000000, 0.0000000000000000000, 0.4432552323110151000 ) ) ;
#74 = DIRECTION ( 'NONE',  ( -1.000000000000000000, 1.224606353822377300E-016, 0.0000000000000000000 ) ) ;
#75 = COLOUR_RGB ( '',0.7960784313725489700, 0.8235294117647058400, 0.9372549019607843100 ) ;
#76 = PRESENTATION_LAYER_ASSIGNMENT (  '', '', ( #64 ) ) ;
#77 = AXIS2_PLACEMENT_3D ( 'NONE', #73, #60, #57 ) ;
#78 = DIRECTION ( 'NONE',  ( -1.224606353822377300E-016, -1.000000000000000000, 0.0000000000000000000 ) ) ;
#79 = PRESENTATION_STYLE_ASSIGNMENT (( #66 ) ) ;
#80 = CIRCLE ( 'NONE', #70, 7.719999999999999800 ) ;
#81 = FILL_AREA_STYLE ('',( #62 ) ) ;
#82 =( NAMED_UNIT ( * ) PLANE_ANGLE_UNIT ( ) SI_UNIT ( $, .RADIAN. ) );
#83 =( LENGTH_UNIT ( ) NAMED_UNIT ( * ) SI_UNIT ( .MILLI., .METRE. ) );
#84 = UNCERTAINTY_MEASURE_WITH_UNIT (LENGTH_MEASURE( 1.000000000000000100E-005 ), #83, 'distance_accuracy_value', 'NONE');
#85 = SURFACE_STYLE_USAGE ( .BOTH. , #88 ) ;
#86 = FILL_AREA_STYLE ('',( #89 ) ) ;
#87 =( NAMED_UNIT ( * ) PLANE_ANGLE_UNIT ( ) SI_UNIT ( $, .RADIAN. ) );
#88 = SURFACE_SIDE_STYLE ('',( #95 ) ) ;
#89 = FILL_AREA_STYLE_COLOUR ( '', #90 ) ;
#90 = COLOUR_RGB ( '',0.9568627450980391500, 0.9490196078431372100, 0.9607843137254902200 ) ;
#91 = CARTESIAN_POINT ( 'NONE',  ( 2.999999999999999100, 0.0000000000000000000, 0.4432552323110151000 ) ) ;
#92 = MECHANICAL_DESIGN_GEOMETRIC_PRESENTATION_REPRESENTATION (  '', ( #98 ), #100 ) ;
#93 = PRESENTATION_STYLE_ASSIGNMENT (( #85 ) ) ;
#94 = PRESENTATION_LAYER_ASSIGNMENT (  '', '', ( #98 ) ) ;
#95 = SURFACE_STYLE_FILL_AREA ( #86 ) ;
#96 = FACE_OUTER_BOUND ( 'NONE', #15, .T. ) ;
#97 =( NAMED_UNIT ( * ) SI_UNIT ( $, .STERADIAN. ) SOLID_ANGLE_UNIT ( ) );
#98 = STYLED_ITEM ( 'NONE', ( #93 ), #24 ) ;
#99 =( LENGTH_UNIT ( ) NAMED_UNIT ( * ) SI_UNIT ( .MILLI., .METRE. ) );
#100 =( GEOMETRIC_REPRESENTATION_CONTEXT ( 3 ) GLOBAL_UNCERTAINTY_ASSIGNED_CONTEXT ( ( #84 ) ) GLOBAL_UNIT_ASSIGNED_CONTEXT ( ( #83, #87, #97 ) ) REPRESENTATION_CONTEXT ( 'NONE', 'WORKASPACE' ) );
#101 = DIRECTION ( 'NONE',  ( 1.000000000000000000, 0.0000000000000000000, 0.0000000000000000000 ) ) ;
#102 = CARTESIAN_POINT ( 'NONE',  ( 0.0000000000000000000, 0.0000000000000000000, -1.050000000000000500 ) ) ;
#103 = CARTESIAN_POINT ( 'NONE',  ( 0.0000000000000000000, 0.0000000000000000000, 4.308132045400366600 ) ) ;
#104 = CIRCLE ( 'NONE', #114, 2.999999999999999100 ) ;
#105 = CIRCLE ( 'NONE', #148, 2.999999999999999100 ) ;
#106 = DIRECTION ( 'NONE',  ( -0.0000000000000000000, -0.0000000000000000000, 1.000000000000000000 ) ) ;
#107 = CARTESIAN_POINT ( 'NONE',  ( -2.999999999999999100, 3.673819061467130800E-016, 0.4432552323110151000 ) ) ;
#108 = DIRECTION ( 'NONE',  ( 1.000000000000000000, 0.0000000000000000000, 0.0000000000000000000 ) ) ;
#109 = DIRECTION ( 'NONE',  ( -0.0000000000000000000, -0.0000000000000000000, 1.000000000000000000 ) ) ;
#110 = VECTOR ( 'NONE', #122, 1000.000000000000000 ) ;
#111 = CARTESIAN_POINT ( 'NONE',  ( 0.0000000000000000000, 0.0000000000000000000, 0.4432552323110151000 ) ) ;
#112 = FILL_AREA_STYLE ('',( #128 ) ) ;
#113 = COLOUR_RGB ( '',0.9568627450980391500, 0.9490196078431372100, 0.9607843137254902200 ) ;
#114 = AXIS2_PLACEMENT_3D ( 'NONE', #133, #106, #101 ) ;
#115 = STYLED_ITEM ( 'NONE', ( #116 ), #33 ) ;
#116 = PRESENTATION_STYLE_ASSIGNMENT (( #138 ) ) ;
#117 = UNCERTAINTY_MEASURE_WITH_UNIT (LENGTH_MEASURE( 1.000000000000000100E-005 ), #99, 'distance_accuracy_value', 'NONE');
#118 = LINE ( 'NONE', #135, #110 ) ;
#119 =( NAMED_UNIT ( * ) SI_UNIT ( $, .STERADIAN. ) SOLID_ANGLE_UNIT ( ) );
#120 = AXIS2_PLACEMENT_3D ( 'NONE', #111, #130, #129 ) ;
#121 = CIRCLE ( 'NONE', #120, 2.999999999999999100 ) ;
#122 = DIRECTION ( 'NONE',  ( -0.0000000000000000000, -0.0000000000000000000, 1.000000000000000000 ) ) ;
#123 = DIRECTION ( 'NONE',  ( 0.0000000000000000000, 1.000000000000000000, 0.0000000000000000000 ) ) ;
#124 = DIRECTION ( 'NONE',  ( -1.000000000000000000, 0.0000000000000000000, 0.0000000000000000000 ) ) ;
#125 = CARTESIAN_POINT ( 'NONE',  ( 0.0000000000000000000, 0.0000000000000000000, -6.669999999999999000 ) ) ;
#126 = AXIS2_PLACEMENT_3D ( 'NONE', #125, #124, #123 ) ;
#127 = CARTESIAN_POINT ( 'NONE',  ( 0.0000000000000000000, 4.726980525754376100E-016, 1.050000000000000500 ) ) ;
#128 = FILL_AREA_STYLE_COLOUR ( '', #113 ) ;
#129 = DIRECTION ( 'NONE',  ( 1.000000000000000000, 0.0000000000000000000, 0.0000000000000000000 ) ) ;
#130 = DIRECTION ( 'NONE',  ( -0.0000000000000000000, -0.0000000000000000000, 1.000000000000000000 ) ) ;
#131 = AXIS2_PLACEMENT_3D ( 'NONE', #103, #144, #136 ) ;
#132 =( GEOMETRIC_REPRESENTATION_CONTEXT ( 3 ) GLOBAL_UNCERTAINTY_ASSIGNED_CONTEXT ( ( #117 ) ) GLOBAL_UNIT_ASSIGNED_CONTEXT ( ( #99, #149, #119 ) ) REPRESENTATION_CONTEXT ( 'NONE', 'WORKASPACE' ) );
#133 = CARTESIAN_POINT ( 'NONE',  ( 0.0000000000000000000, 0.0000000000000000000, 0.4432552323110151000 ) ) ;
#134 = SPHERICAL_SURFACE ( 'NONE', #126, 7.719999999999999800 ) ;
#135 = CARTESIAN_POINT ( 'NONE',  ( -2.999999999999999100, 3.673819061467130800E-016, 4.308132045400366600 ) ) ;
#136 = DIRECTION ( 'NONE',  ( 1.000000000000000000, 0.0000000000000000000, 0.0000000000000000000 ) ) ;
#137 = CYLINDRICAL_SURFACE ( 'NONE', #131, 2.999999999999999100 ) ;
#138 = SURFACE_STYLE_USAGE ( .BOTH. , #139 ) ;
#139 = SURFACE_SIDE_STYLE ('',( #140 ) ) ;
#140 = SURFACE_STYLE_FILL_AREA ( #112 ) ;
#141 = AXIS2_PLACEMENT_3D ( 'NONE', #150, #168, #152 ) ;
#142 = CIRCLE ( 'NONE', #141, 2.999999999999999100 ) ;
#143 =( NAMED_UNIT ( * ) PLANE_ANGLE_UNIT ( ) SI_UNIT ( $, .RADIAN. ) );
#144 = DIRECTION ( 'NONE',  ( -0.0000000000000000000, -0.0000000000000000000, 1.000000000000000000 ) ) ;
#145 = MECHANICAL_DESIGN_GEOMETRIC_PRESENTATION_REPRESENTATION (  '', ( #115 ), #132 ) ;
#146 = PRESENTATION_LAYER_ASSIGNMENT (  '', '', ( #115 ) ) ;
#147 = FACE_OUTER_BOUND ( 'NONE', #46, .T. ) ;
#148 = AXIS2_PLACEMENT_3D ( 'NONE', #102, #109, #108 ) ;
#149 =( NAMED_UNIT ( * ) PLANE_ANGLE_UNIT ( ) SI_UNIT ( $, .RADIAN. ) );
#150 = CARTESIAN_POINT ( 'NONE',  ( 0.0000000000000000000, 0.0000000000000000000, -1.050000000000000500 ) ) ;
#151 = FACE_OUTER_BOUND ( 'NONE', #26, .T. ) ;
#152 = DIRECTION ( 'NONE',  ( 1.000000000000000000, 0.0000000000000000000, 0.0000000000000000000 ) ) ;
#153 =( LENGTH_UNIT ( ) NAMED_UNIT ( * ) SI_UNIT ( .MILLI., .METRE. ) );
#154 = SURFACE_STYLE_FILL_AREA ( #184 ) ;
#155 = AXIS2_PLACEMENT_3D ( 'NONE', #165, #186, #171 ) ;
#156 = AXIS2_PLACEMENT_3D ( 'NONE', #173, #172, #183 ) ;
#157 =( GEOMETRIC_REPRESENTATION_CONTEXT ( 3 ) GLOBAL_UNCERTAINTY_ASSIGNED_CONTEXT ( ( #169 ) ) GLOBAL_UNIT_ASSIGNED_CONTEXT ( ( #153, #188, #170 ) ) REPRESENTATION_CONTEXT ( 'NONE', 'WORKASPACE' ) );
#158 = CIRCLE ( 'NONE', #155, 2.999999999999999100 ) ;
#159 = COLOUR_RGB ( '',0.9568627450980391500, 0.9490196078431372100, 0.9607843137254902200 ) ;
#160 = MECHANICAL_DESIGN_GEOMETRIC_PRESENTATION_REPRESENTATION (  '', ( #162 ), #209 ) ;
#161 = PRESENTATION_LAYER_ASSIGNMENT (  '', '', ( #162 ) ) ;
#162 = STYLED_ITEM ( 'NONE', ( #163 ), #41 ) ;
#163 = PRESENTATION_STYLE_ASSIGNMENT (( #164 ) ) ;
#164 = SURFACE_STYLE_USAGE ( .BOTH. , #179 ) ;
#165 = CARTESIAN_POINT ( 'NONE',  ( 0.0000000000000000000, 0.0000000000000000000, 0.4432552323110151000 ) ) ;
#166 = STYLED_ITEM ( 'NONE', ( #189 ), #40 ) ;
#167 =( LENGTH_UNIT ( ) NAMED_UNIT ( * ) SI_UNIT ( .MILLI., .METRE. ) );
#168 = DIRECTION ( 'NONE',  ( -0.0000000000000000000, -0.0000000000000000000, 1.000000000000000000 ) ) ;
#169 = UNCERTAINTY_MEASURE_WITH_UNIT (LENGTH_MEASURE( 1.000000000000000100E-005 ), #153, 'distance_accuracy_value', 'NONE');
#170 =( NAMED_UNIT ( * ) SI_UNIT ( $, .STERADIAN. ) SOLID_ANGLE_UNIT ( ) );
#171 = DIRECTION ( 'NONE',  ( 1.000000000000000000, 0.0000000000000000000, 0.0000000000000000000 ) ) ;
#172 = DIRECTION ( 'NONE',  ( 0.0000000000000000000, -0.0000000000000000000, 1.000000000000000000 ) ) ;
#173 = CARTESIAN_POINT ( 'NONE',  ( 0.0000000000000000000, 3.857637417314163200E-016, -1.050000000000000000 ) ) ;
#174 = COLOUR_RGB ( '',0.9568627450980391500, 0.9490196078431372100, 0.9607843137254902200 ) ;
#175 = FACE_OUTER_BOUND ( 'NONE', #7, .T. ) ;
#176 = FILL_AREA_STYLE_COLOUR ( '', #159 ) ;
#177 = MECHANICAL_DESIGN_GEOMETRIC_PRESENTATION_REPRESENTATION (  '', ( #166 ), #157 ) ;
#178 = PRESENTATION_LAYER_ASSIGNMENT (  '', '', ( #166 ) ) ;
#179 = SURFACE_SIDE_STYLE ('',( #180 ) ) ;
#180 = SURFACE_STYLE_FILL_AREA ( #181 ) ;
#181 = FILL_AREA_STYLE ('',( #182 ) ) ;
#182 = FILL_AREA_STYLE_COLOUR ( '', #174 ) ;
#183 = DIRECTION ( 'NONE',  ( 1.000000000000000000, 0.0000000000000000000, 0.0000000000000000000 ) ) ;
#184 = FILL_AREA_STYLE ('',( #176 ) ) ;
#185 = SURFACE_SIDE_STYLE ('',( #154 ) ) ;
#186 = DIRECTION ( 'NONE',  ( -0.0000000000000000000, -0.0000000000000000000, 1.000000000000000000 ) ) ;
#187 = PLANE ( 'NONE',  #156 ) ;
#188 =( NAMED_UNIT ( * ) PLANE_ANGLE_UNIT ( ) SI_UNIT ( $, .RADIAN. ) );
#189 = PRESENTATION_STYLE_ASSIGNMENT (( #190 ) ) ;
#190 = SURFACE_STYLE_USAGE ( .BOTH. , #185 ) ;
#191 = FILL_AREA_STYLE_COLOUR ( '', #192 ) ;
#192 = COLOUR_RGB ( '',0.7960784313725489700, 0.8235294117647058400, 0.9372549019607843100 ) ;
#193 = CARTESIAN_POINT ( 'NONE',  ( 0.0000000000000000000, 0.0000000000000000000, -6.669999999999999000 ) ) ;
#194 = PRESENTATION_LAYER_ASSIGNMENT (  '', '', ( #195 ) ) ;
#195 = STYLED_ITEM ( 'NONE', ( #196 ), #208 ) ;
#196 = PRESENTATION_STYLE_ASSIGNMENT (( #197 ) ) ;
#197 = SURFACE_STYLE_USAGE ( .BOTH. , #210 ) ;
#198 = UNCERTAINTY_MEASURE_WITH_UNIT (LENGTH_MEASURE( 1.000000000000000100E-005 ), #167, 'distance_accuracy_value', 'NONE');
#199 = DIRECTION ( 'NONE',  ( 0.0000000000000000000, 1.000000000000000000, 0.0000000000000000000 ) ) ;
#200 = MECHANICAL_DESIGN_GEOMETRIC_PRESENTATION_REPRESENTATION (  '', ( #195 ), #249 ) ;
#201 = AXIS2_PLACEMENT_3D ( 'NONE', #193, #205, #199 ) ;
#202 = SPHERICAL_SURFACE ( 'NONE', #201, 7.719999999999999800 ) ;
#203 =( NAMED_UNIT ( * ) SI_UNIT ( $, .STERADIAN. ) SOLID_ANGLE_UNIT ( ) );
#204 =( NAMED_UNIT ( * ) PLANE_ANGLE_UNIT ( ) SI_UNIT ( $, .RADIAN. ) );
#205 = DIRECTION ( 'NONE',  ( -1.000000000000000000, 0.0000000000000000000, 0.0000000000000000000 ) ) ;
#206 =( LENGTH_UNIT ( ) NAMED_UNIT ( * ) SI_UNIT ( .MILLI., .METRE. ) );
#207 = APPLICATION_CONTEXT ( 'automotive_design' ) ;
#208 = ADVANCED_BREP_SHAPE_REPRESENTATION ( '4564-E0W', ( #16, #247 ), #52 ) ;
#209 =( GEOMETRIC_REPRESENTATION_CONTEXT ( 3 ) GLOBAL_UNCERTAINTY_ASSIGNED_CONTEXT ( ( #198 ) ) GLOBAL_UNIT_ASSIGNED_CONTEXT ( ( #167, #143, #203 ) ) REPRESENTATION_CONTEXT ( 'NONE', 'WORKASPACE' ) );
#210 = SURFACE_SIDE_STYLE ('',( #211 ) ) ;
#211 = SURFACE_STYLE_FILL_AREA ( #212 ) ;
#212 = FILL_AREA_STYLE ('',( #191 ) ) ;
#213 =( NAMED_UNIT ( * ) PLANE_ANGLE_UNIT ( ) SI_UNIT ( $, .RADIAN. ) );
#214 = SURFACE_STYLE_FILL_AREA ( #238 ) ;
#215 = CARTESIAN_POINT ( 'NONE',  ( -3.673819061467128800E-016, -2.999999999999997300, 0.4432552323110151000 ) ) ;
#216 = SURFACE_STYLE_USAGE ( .BOTH. , #217 ) ;
#217 = SURFACE_SIDE_STYLE ('',( #214 ) ) ;
#218 = VECTOR ( 'NONE', #227, 1000.000000000000000 ) ;
#219 = PRESENTATION_STYLE_ASSIGNMENT (( #216 ) ) ;
#220 = STYLED_ITEM ( 'NONE', ( #219 ), #49 ) ;
#221 = MECHANICAL_DESIGN_GEOMETRIC_PRESENTATION_REPRESENTATION (  '', ( #220 ), #242 ) ;
#222 = COLOUR_RGB ( '',0.9568627450980391500, 0.9490196078431372100, 0.9607843137254902200 ) ;
#223 =( NAMED_UNIT ( * ) PLANE_ANGLE_UNIT ( ) SI_UNIT ( $, .RADIAN. ) );
#224 = CARTESIAN_POINT ( 'NONE',  ( 2.999999999999999100, 0.0000000000000000000, 4.308132045400366600 ) ) ;
#225 = PRESENTATION_LAYER_ASSIGNMENT (  '', '', ( #220 ) ) ;
#226 = CYLINDRICAL_SURFACE ( 'NONE', #245, 2.999999999999999100 ) ;
#227 = DIRECTION ( 'NONE',  ( -0.0000000000000000000, -0.0000000000000000000, 1.000000000000000000 ) ) ;
#228 = UNCERTAINTY_MEASURE_WITH_UNIT (LENGTH_MEASURE( 1.000000000000000100E-005 ), #233, 'distance_accuracy_value', 'NONE');
#229 = PRODUCT ( '4564-E0W', '4564-E0W', '', ( #230 ) ) ;
#230 = PRODUCT_CONTEXT ( 'NONE', #207, 'mechanical' ) ;
#231 = FACE_OUTER_BOUND ( 'NONE', #42, .T. ) ;
#232 = DIRECTION ( 'NONE',  ( 1.000000000000000000, 0.0000000000000000000, 0.0000000000000000000 ) ) ;
#233 =( LENGTH_UNIT ( ) NAMED_UNIT ( * ) SI_UNIT ( .MILLI., .METRE. ) );
#234 = CARTESIAN_POINT ( 'NONE',  ( 2.999999999999999100, 0.0000000000000000000, -1.050000000000000500 ) ) ;
#235 = APPLICATION_PROTOCOL_DEFINITION ( 'draft international standard', 'automotive_design', 1998, #207 ) ;
#236 = LINE ( 'NONE', #224, #218 ) ;
#237 =( NAMED_UNIT ( * ) SI_UNIT ( $, .STERADIAN. ) SOLID_ANGLE_UNIT ( ) );
#238 = FILL_AREA_STYLE ('',( #241 ) ) ;
#239 =( LENGTH_UNIT ( ) NAMED_UNIT ( * ) SI_UNIT ( .MILLI., .METRE. ) );
#240 =( NAMED_UNIT ( * ) SI_UNIT ( $, .STERADIAN. ) SOLID_ANGLE_UNIT ( ) );
#241 = FILL_AREA_STYLE_COLOUR ( '', #222 ) ;
#242 =( GEOMETRIC_REPRESENTATION_CONTEXT ( 3 ) GLOBAL_UNCERTAINTY_ASSIGNED_CONTEXT ( ( #246 ) ) GLOBAL_UNIT_ASSIGNED_CONTEXT ( ( #239, #223, #240 ) ) REPRESENTATION_CONTEXT ( 'NONE', 'WORKASPACE' ) );
#243 = DIRECTION ( 'NONE',  ( -0.0000000000000000000, -0.0000000000000000000, 1.000000000000000000 ) ) ;
#244 = CARTESIAN_POINT ( 'NONE',  ( 0.0000000000000000000, 0.0000000000000000000, 4.308132045400366600 ) ) ;
#245 = AXIS2_PLACEMENT_3D ( 'NONE', #244, #243, #232 ) ;
#246 = UNCERTAINTY_MEASURE_WITH_UNIT (LENGTH_MEASURE( 1.000000000000000100E-005 ), #239, 'distance_accuracy_value', 'NONE');
#247 = AXIS2_PLACEMENT_3D ( 'NONE', #256, #257, #255 ) ;
#248 = PRODUCT_DEFINITION_CONTEXT ( 'detailed design', #250, 'design' ) ;
#249 =( GEOMETRIC_REPRESENTATION_CONTEXT ( 3 ) GLOBAL_UNCERTAINTY_ASSIGNED_CONTEXT ( ( #252 ) ) GLOBAL_UNIT_ASSIGNED_CONTEXT ( ( #206, #204, #253 ) ) REPRESENTATION_CONTEXT ( 'NONE', 'WORKASPACE' ) );
#250 = APPLICATION_CONTEXT ( 'automotive_design' ) ;
#251 = PRODUCT_DEFINITION_SHAPE ( 'NONE', 'NONE',  #261 ) ;
#252 = UNCERTAINTY_MEASURE_WITH_UNIT (LENGTH_MEASURE( 1.000000000000000100E-005 ), #206, 'distance_accuracy_value', 'NONE');
#253 =( NAMED_UNIT ( * ) SI_UNIT ( $, .STERADIAN. ) SOLID_ANGLE_UNIT ( ) );
#254 = APPLICATION_PROTOCOL_DEFINITION ( 'draft international standard', 'automotive_design', 1998, #250 ) ;
#255 = DIRECTION ( 'NONE',  ( 1.000000000000000000, 0.0000000000000000000, 0.0000000000000000000 ) ) ;
#256 = CARTESIAN_POINT ( 'NONE',  ( 0.0000000000000000000, 0.0000000000000000000, 0.0000000000000000000 ) ) ;
#257 = DIRECTION ( 'NONE',  ( 0.0000000000000000000, 0.0000000000000000000, 1.000000000000000000 ) ) ;
#258 = SHAPE_DEFINITION_REPRESENTATION ( #251, #208 ) ;
#259 = PRODUCT_RELATED_PRODUCT_CATEGORY ( 'part', '', ( #229 ) ) ;
#260 = PRODUCT_DEFINITION_FORMATION_WITH_SPECIFIED_SOURCE ( 'ANY', '', #229, .NOT_KNOWN. ) ;
#261 = PRODUCT_DEFINITION ( 'UNKNOWN', '', #260, #248 ) ;
ENDSEC;
END-ISO-10303-21;
