ISO-10303-21;
HEADER;
FILE_DESCRIPTION (( 'STEP AP203' ),
    '1' );
FILE_NAME ('Web Model 17561_22070.step',
    '2022-06-17T14:33:40',
    ( 'WC' ),
    ( 'Windows Central' ),
    'SwSTEP 2.0',
    'SolidWorks 2021',
    '' );
FILE_SCHEMA (( 'CONFIG_CONTROL_DESIGN' ));
ENDSEC;

DATA;
#1 = EDGE_LOOP ( 'NONE', ( #124, #73 ) ) ;
#2 = APPROVAL_ROLE ( '' ) ;
#3 = ORIENTED_EDGE ( 'NONE', *, *, #48, .F. ) ;
#4 = CLOSED_SHELL ( 'NONE', ( #17, #148, #156, #13 ) ) ;
#5 = EDGE_LOOP ( 'NONE', ( #118, #3, #25, #74 ) ) ;
#6 = CARTESIAN_POINT ( 'NONE',  ( 1.968503937007874072, 2.410722045565655947E-16, 0.1968503937007874127 ) ) ;
#7 = LOCAL_TIME ( 10, 33, 40.00000000000000000, #139 ) ;
#8 = CC_DESIGN_PERSON_AND_ORGANIZATION_ASSIGNMENT ( #127, #82, ( #19 ) ) ;
#9 =( NAMED_UNIT ( * ) SI_UNIT ( $, .STERADIAN. ) SOLID_ANGLE_UNIT ( ) );
#10 = AXIS2_PLACEMENT_3D ( 'NONE', #103, #68, #32 ) ;
#11 = CC_DESIGN_DATE_AND_TIME_ASSIGNMENT ( #61, #151, ( #19 ) ) ;
#12 = MECHANICAL_CONTEXT ( 'NONE', #22, 'mechanical' ) ;
#13 = ADVANCED_FACE ( 'NONE', ( #92 ), #149, .F. ) ;
#14 = CALENDAR_DATE ( 2022, 17, 6 ) ;
#15 = APPLICATION_CONTEXT ( 'configuration controlled 3d designs of mechanical parts and assemblies' ) ;
#16 = ORGANIZATION ( 'UNSPECIFIED', 'UNSPECIFIED', '' ) ;
#17 = ADVANCED_FACE ( 'NONE', ( #109 ), #161, .T. ) ;
#18 = DIRECTION ( 'NONE',  ( 0.000000000000000000, 0.000000000000000000, 1.000000000000000000 ) ) ;
#19 = PRODUCT_DEFINITION ( 'UNKNOWN', '', #46, #123 ) ;
#20 = AXIS2_PLACEMENT_3D ( 'NONE', #24, #18, #97 ) ;
#21 = DIRECTION ( 'NONE',  ( -1.000000000000000000, 0.000000000000000000, 0.000000000000000000 ) ) ;
#22 = APPLICATION_CONTEXT ( 'configuration controlled 3d designs of mechanical parts and assemblies' ) ;
#23 = CARTESIAN_POINT ( 'NONE',  ( 0.000000000000000000, 0.000000000000000000, 0.1968503937007874127 ) ) ;
#24 = CARTESIAN_POINT ( 'NONE',  ( 0.000000000000000000, 0.000000000000000000, 0.1968503937007874127 ) ) ;
#25 = ORIENTED_EDGE ( 'NONE', *, *, #64, .T. ) ;
#26 = CC_DESIGN_APPROVAL ( #142, ( #143 ) ) ;
#27 = PERSON_AND_ORGANIZATION_ROLE ( 'creator' ) ;
#28 = COORDINATED_UNIVERSAL_TIME_OFFSET ( 5, 0, .BEHIND. ) ;
#29 = EDGE_CURVE ( 'NONE', #112, #130, #159, .T. ) ;
#30 = CALENDAR_DATE ( 2022, 17, 6 ) ;
#31 = AXIS2_PLACEMENT_3D ( 'NONE', #76, #54, #53 ) ;
#32 = DIRECTION ( 'NONE',  ( 1.000000000000000000, 0.000000000000000000, -0.000000000000000000 ) ) ;
#33 =( NAMED_UNIT ( * ) PLANE_ANGLE_UNIT ( ) SI_UNIT ( $, .RADIAN. ) );
#34 = PRODUCT ( 'Web Model 17561_22070', 'Web Model 17561_22070', '', ( #12 ) ) ;
#35 = SHAPE_DEFINITION_REPRESENTATION ( #168, #173 ) ;
#36 = DATE_AND_TIME ( #14, #147 ) ;
#37 = DATE_TIME_ROLE ( 'classification_date' ) ;
#38 = AXIS2_PLACEMENT_3D ( 'NONE', #176, #115, #166 ) ;
#39 = CC_DESIGN_DATE_AND_TIME_ASSIGNMENT ( #50, #37, ( #143 ) ) ;
#40 = CYLINDRICAL_SURFACE ( 'NONE', #45, 1.968503937007874072 ) ;
#41 = AXIS2_PLACEMENT_3D ( 'NONE', #80, #111, #43 ) ;
#42 = CARTESIAN_POINT ( 'NONE',  ( -1.968503937007874072, 0.000000000000000000, 0.1968503937007874127 ) ) ;
#43 = DIRECTION ( 'NONE',  ( -1.000000000000000000, 0.000000000000000000, 0.000000000000000000 ) ) ;
#44 = DIRECTION ( 'NONE',  ( 1.000000000000000000, 0.000000000000000000, 0.000000000000000000 ) ) ;
#45 = AXIS2_PLACEMENT_3D ( 'NONE', #93, #77, #21 ) ;
#46 = PRODUCT_DEFINITION_FORMATION_WITH_SPECIFIED_SOURCE ( 'ANY', '', #34, .NOT_KNOWN. ) ;
#47 = SECURITY_CLASSIFICATION_LEVEL ( 'unclassified' ) ;
#48 = EDGE_CURVE ( 'NONE', #63, #160, #94, .T. ) ;
#49 = AXIS2_PLACEMENT_3D ( 'NONE', #23, #121, #44 ) ;
#50 = DATE_AND_TIME ( #144, #60 ) ;
#51 = PERSON_AND_ORGANIZATION ( #105, #16 ) ;
#52 = CC_DESIGN_PERSON_AND_ORGANIZATION_ASSIGNMENT ( #51, #89, ( #143 ) ) ;
#53 = DIRECTION ( 'NONE',  ( 1.000000000000000000, 0.000000000000000000, -0.000000000000000000 ) ) ;
#54 = DIRECTION ( 'NONE',  ( 0.000000000000000000, 0.000000000000000000, 1.000000000000000000 ) ) ;
#55 = CC_DESIGN_APPROVAL ( #172, ( #19 ) ) ;
#56 = EDGE_CURVE ( 'NONE', #160, #63, #138, .T. ) ;
#57 = ORIENTED_EDGE ( 'NONE', *, *, #29, .F. ) ;
#58 = ORIENTED_EDGE ( 'NONE', *, *, #113, .F. ) ;
#59 = PERSON_AND_ORGANIZATION ( #105, #16 ) ;
#60 = LOCAL_TIME ( 10, 33, 40.00000000000000000, #62 ) ;
#61 = DATE_AND_TIME ( #30, #107 ) ;
#62 = COORDINATED_UNIVERSAL_TIME_OFFSET ( 5, 0, .BEHIND. ) ;
#63 = VERTEX_POINT ( 'NONE', #42 ) ;
#64 = EDGE_CURVE ( 'NONE', #63, #130, #108, .T. ) ;
#65 = APPROVAL_DATE_TIME ( #36, #142 ) ;
#66 = CARTESIAN_POINT ( 'NONE',  ( 0.000000000000000000, 0.000000000000000000, 0.000000000000000000 ) ) ;
#67 = CARTESIAN_POINT ( 'NONE',  ( 0.000000000000000000, 0.000000000000000000, 0.000000000000000000 ) ) ;
#68 = DIRECTION ( 'NONE',  ( 0.000000000000000000, 0.000000000000000000, 1.000000000000000000 ) ) ;
#69 = APPROVAL_DATE_TIME ( #137, #172 ) ;
#70 = APPROVAL_DATE_TIME ( #128, #136 ) ;
#71 = CALENDAR_DATE ( 2022, 17, 6 ) ;
#72 = DIMENSIONAL_EXPONENTS ( 1.000000000000000000, 0.000000000000000000, 0.000000000000000000, 0.000000000000000000, 0.000000000000000000, 0.000000000000000000, 0.000000000000000000 ) ;
#73 = ORIENTED_EDGE ( 'NONE', *, *, #56, .T. ) ;
#74 = ORIENTED_EDGE ( 'NONE', *, *, #113, .T. ) ;
#75 = DIRECTION ( 'NONE',  ( 0.000000000000000000, 0.000000000000000000, 1.000000000000000000 ) ) ;
#76 = CARTESIAN_POINT ( 'NONE',  ( 0.000000000000000000, 0.000000000000000000, 0.000000000000000000 ) ) ;
#77 = DIRECTION ( 'NONE',  ( -0.000000000000000000, -0.000000000000000000, -1.000000000000000000 ) ) ;
#78 = CARTESIAN_POINT ( 'NONE',  ( -1.968503937007874072, 0.000000000000000000, 0.1968503937007874127 ) ) ;
#79 = VECTOR ( 'NONE', #125, 39.37007874015748143 ) ;
#80 = CARTESIAN_POINT ( 'NONE',  ( 0.000000000000000000, 0.000000000000000000, 0.1968503937007874127 ) ) ;
#81 = PERSON_AND_ORGANIZATION_ROLE ( 'design_supplier' ) ;
#82 = PERSON_AND_ORGANIZATION_ROLE ( 'creator' ) ;
#83 = APPROVAL_ROLE ( '' ) ;
#84 = CALENDAR_DATE ( 2022, 17, 6 ) ;
#85 = COORDINATED_UNIVERSAL_TIME_OFFSET ( 5, 0, .BEHIND. ) ;
#86 = MANIFOLD_SOLID_BREP ( 'Boss-Extrude1', #4 ) ;
#87 = PRODUCT_RELATED_PRODUCT_CATEGORY ( 'detail', '', ( #34 ) ) ;
#88 = APPROVAL_STATUS ( 'not_yet_approved' ) ;
#89 = PERSON_AND_ORGANIZATION_ROLE ( 'classification_officer' ) ;
#90 = CIRCLE ( 'NONE', #102, 1.968503937007874072 ) ;
#91 = EDGE_CURVE ( 'NONE', #160, #112, #163, .T. ) ;
#92 = FACE_OUTER_BOUND ( 'NONE', #174, .T. ) ;
#93 = CARTESIAN_POINT ( 'NONE',  ( 0.000000000000000000, 0.000000000000000000, 0.1968503937007874127 ) ) ;
#94 = CIRCLE ( 'NONE', #49, 1.968503937007874072 ) ;
#95 = DIRECTION ( 'NONE',  ( -0.000000000000000000, -0.000000000000000000, -1.000000000000000000 ) ) ;
#96 = ORIENTED_EDGE ( 'NONE', *, *, #64, .F. ) ;
#97 = DIRECTION ( 'NONE',  ( 1.000000000000000000, 0.000000000000000000, 0.000000000000000000 ) ) ;
#98 =( GEOMETRIC_REPRESENTATION_CONTEXT ( 3 ) GLOBAL_UNCERTAINTY_ASSIGNED_CONTEXT ( ( #169 ) ) GLOBAL_UNIT_ASSIGNED_CONTEXT ( ( #155, #33, #9 ) ) REPRESENTATION_CONTEXT ( 'NONE', 'WORKASPACE' ) );
#99 = PERSON_AND_ORGANIZATION ( #105, #16 ) ;
#100 = PERSON_AND_ORGANIZATION ( #105, #16 ) ;
#101 = LENGTH_MEASURE_WITH_UNIT ( LENGTH_MEASURE( 0.02539999999999999897 ), #167 );
#102 = AXIS2_PLACEMENT_3D ( 'NONE', #67, #75, #131 ) ;
#103 = CARTESIAN_POINT ( 'NONE',  ( 0.000000000000000000, 0.000000000000000000, 0.1968503937007874127 ) ) ;
#104 = ORIENTED_EDGE ( 'NONE', *, *, #91, .T. ) ;
#105 = PERSON ( 'UNSPECIFIED', 'UNSPECIFIED', 'UNSPECIFIED', ('UNSPECIFIED'), ('UNSPECIFIED'), ('UNSPECIFIED') ) ;
#106 = ORIENTED_EDGE ( 'NONE', *, *, #29, .T. ) ;
#107 = LOCAL_TIME ( 10, 33, 40.00000000000000000, #85 ) ;
#108 = LINE ( 'NONE', #78, #110 ) ;
#109 = FACE_OUTER_BOUND ( 'NONE', #129, .T. ) ;
#110 = VECTOR ( 'NONE', #95, 39.37007874015748143 ) ;
#111 = DIRECTION ( 'NONE',  ( -0.000000000000000000, -0.000000000000000000, -1.000000000000000000 ) ) ;
#112 = VERTEX_POINT ( 'NONE', #146 ) ;
#113 = EDGE_CURVE ( 'NONE', #130, #112, #90, .T. ) ;
#114 = APPLICATION_PROTOCOL_DEFINITION ( 'international standard', 'config_control_design', 1994, #15 ) ;
#115 = DIRECTION ( 'NONE',  ( 0.000000000000000000, 0.000000000000000000, 1.000000000000000000 ) ) ;
#116 = PERSON_AND_ORGANIZATION ( #105, #16 ) ;
#117 = PERSON_AND_ORGANIZATION ( #105, #16 ) ;
#118 = ORIENTED_EDGE ( 'NONE', *, *, #91, .F. ) ;
#119 = APPROVAL_PERSON_ORGANIZATION ( #117, #142, #2 ) ;
#120 = CC_DESIGN_PERSON_AND_ORGANIZATION_ASSIGNMENT ( #116, #81, ( #46 ) ) ;
#121 = DIRECTION ( 'NONE',  ( 0.000000000000000000, 0.000000000000000000, 1.000000000000000000 ) ) ;
#122 = LOCAL_TIME ( 10, 33, 40.00000000000000000, #28 ) ;
#123 = DESIGN_CONTEXT ( 'detailed design', #15, 'design' ) ;
#124 = ORIENTED_EDGE ( 'NONE', *, *, #48, .T. ) ;
#125 = DIRECTION ( 'NONE',  ( -0.000000000000000000, -0.000000000000000000, -1.000000000000000000 ) ) ;
#126 = APPLICATION_PROTOCOL_DEFINITION ( 'international standard', 'config_control_design', 1994, #22 ) ;
#127 = PERSON_AND_ORGANIZATION ( #105, #16 ) ;
#128 = DATE_AND_TIME ( #71, #7 ) ;
#129 = EDGE_LOOP ( 'NONE', ( #171, #104, #106, #96 ) ) ;
#130 = VERTEX_POINT ( 'NONE', #133 ) ;
#131 = DIRECTION ( 'NONE',  ( 1.000000000000000000, 0.000000000000000000, 0.000000000000000000 ) ) ;
#132 = APPROVAL_PERSON_ORGANIZATION ( #140, #136, #83 ) ;
#133 = CARTESIAN_POINT ( 'NONE',  ( -1.968503937007874072, 0.000000000000000000, 0.000000000000000000 ) ) ;
#134 = FACE_OUTER_BOUND ( 'NONE', #1, .T. ) ;
#135 = DIRECTION ( 'NONE',  ( 1.000000000000000000, 0.000000000000000000, 0.000000000000000000 ) ) ;
#136 = APPROVAL ( #177, 'UNSPECIFIED' ) ;
#137 = DATE_AND_TIME ( #84, #122 ) ;
#138 = CIRCLE ( 'NONE', #20, 1.968503937007874072 ) ;
#139 = COORDINATED_UNIVERSAL_TIME_OFFSET ( 5, 0, .BEHIND. ) ;
#140 = PERSON_AND_ORGANIZATION ( #105, #16 ) ;
#141 = APPROVAL_PERSON_ORGANIZATION ( #99, #172, #152 ) ;
#142 = APPROVAL ( #88, 'UNSPECIFIED' ) ;
#143 = SECURITY_CLASSIFICATION ( '', '', #47 ) ;
#144 = CALENDAR_DATE ( 2022, 17, 6 ) ;
#145 = CC_DESIGN_PERSON_AND_ORGANIZATION_ASSIGNMENT ( #59, #27, ( #46 ) ) ;
#146 = CARTESIAN_POINT ( 'NONE',  ( 1.968503937007874072, 2.410722045565655947E-16, 0.000000000000000000 ) ) ;
#147 = LOCAL_TIME ( 10, 33, 40.00000000000000000, #157 ) ;
#148 = ADVANCED_FACE ( 'NONE', ( #158 ), #40, .T. ) ;
#149 = PLANE ( 'NONE',  #31 ) ;
#150 = CC_DESIGN_APPROVAL ( #136, ( #46 ) ) ;
#151 = DATE_TIME_ROLE ( 'creation_date' ) ;
#152 = APPROVAL_ROLE ( '' ) ;
#153 = PERSON_AND_ORGANIZATION_ROLE ( 'design_owner' ) ;
#154 = APPROVAL_STATUS ( 'not_yet_approved' ) ;
#155 =( CONVERSION_BASED_UNIT ( 'INCH', #101 ) LENGTH_UNIT ( ) NAMED_UNIT ( #72 ) );
#156 = ADVANCED_FACE ( 'NONE', ( #134 ), #178, .T. ) ;
#157 = COORDINATED_UNIVERSAL_TIME_OFFSET ( 5, 0, .BEHIND. ) ;
#158 = FACE_OUTER_BOUND ( 'NONE', #5, .T. ) ;
#159 = CIRCLE ( 'NONE', #170, 1.968503937007874072 ) ;
#160 = VERTEX_POINT ( 'NONE', #165 ) ;
#161 = CYLINDRICAL_SURFACE ( 'NONE', #41, 1.968503937007874072 ) ;
#162 = CC_DESIGN_PERSON_AND_ORGANIZATION_ASSIGNMENT ( #100, #153, ( #34 ) ) ;
#163 = LINE ( 'NONE', #6, #79 ) ;
#164 = CC_DESIGN_SECURITY_CLASSIFICATION ( #143, ( #46 ) ) ;
#165 = CARTESIAN_POINT ( 'NONE',  ( 1.968503937007874072, 2.410722045565655947E-16, 0.1968503937007874127 ) ) ;
#166 = DIRECTION ( 'NONE',  ( 1.000000000000000000, 0.000000000000000000, 0.000000000000000000 ) ) ;
#167 =( LENGTH_UNIT ( ) NAMED_UNIT ( * ) SI_UNIT ( $, .METRE. ) );
#168 = PRODUCT_DEFINITION_SHAPE ( 'NONE', 'NONE',  #19 ) ;
#169 = UNCERTAINTY_MEASURE_WITH_UNIT (LENGTH_MEASURE( 1.000000000000000082E-05 ), #155, 'distance_accuracy_value', 'NONE');
#170 = AXIS2_PLACEMENT_3D ( 'NONE', #66, #175, #135 ) ;
#171 = ORIENTED_EDGE ( 'NONE', *, *, #56, .F. ) ;
#172 = APPROVAL ( #154, 'UNSPECIFIED' ) ;
#173 = ADVANCED_BREP_SHAPE_REPRESENTATION ( 'Web Model 17561_22070', ( #86, #38 ), #98 ) ;
#174 = EDGE_LOOP ( 'NONE', ( #58, #57 ) ) ;
#175 = DIRECTION ( 'NONE',  ( 0.000000000000000000, 0.000000000000000000, 1.000000000000000000 ) ) ;
#176 = CARTESIAN_POINT ( 'NONE',  ( 0.000000000000000000, 0.000000000000000000, 0.000000000000000000 ) ) ;
#177 = APPROVAL_STATUS ( 'not_yet_approved' ) ;
#178 = PLANE ( 'NONE',  #10 ) ;
ENDSEC;
END-ISO-10303-21;
