ISO-10303-21;
HEADER;
FILE_DESCRIPTION (( 'STEP AP214' ),
    '1' );
FILE_NAME ('19315-E0W.STEP',
    '2009-12-21T17:07:11',
    ( ' ' ),
    ( ' ' ),
    'SwSTEP 2.0',
    'SolidWorks 2009',
    '' );
FILE_SCHEMA (( 'AUTOMOTIVE_DESIGN' ));
ENDSEC;

DATA;
#1 = ADVANCED_FACE ( 'NONE', ( #98 ), #174, .T. ) ;
#2 = EDGE_LOOP ( 'NONE', ( #3, #4, #6, #7, #8 ) ) ;
#3 = ORIENTED_EDGE ( 'NONE', *, *, #23, .F. ) ;
#4 = ORIENTED_EDGE ( 'NONE', *, *, #5, .T. ) ;
#5 = EDGE_CURVE ( 'NONE', #21, #20, #153, .T. ) ;
#6 = ORIENTED_EDGE ( 'NONE', *, *, #32, .T. ) ;
#7 = ORIENTED_EDGE ( 'NONE', *, *, #114, .F. ) ;
#8 = ORIENTED_EDGE ( 'NONE', *, *, #186, .F. ) ;
#9 = ADVANCED_FACE ( 'NONE', ( #154 ), #172, .F. ) ;
#10 = EDGE_LOOP ( 'NONE', ( #49, #95 ) ) ;
#11 = ORIENTED_EDGE ( 'NONE', *, *, #186, .T. ) ;
#12 = ORIENTED_EDGE ( 'NONE', *, *, #99, .F. ) ;
#13 = ADVANCED_FACE ( 'NONE', ( #108 ), #131, .T. ) ;
#14 = VERTEX_POINT ( 'NONE', #126 ) ;
#15 = MANIFOLD_SOLID_BREP ( 'NONE', #180 ) ;
#16 = ADVANCED_FACE ( 'NONE', ( #149 ), #185, .T. ) ;
#17 = EDGE_LOOP ( 'NONE', ( #18, #22, #25, #28, #31 ) ) ;
#18 = ORIENTED_EDGE ( 'NONE', *, *, #19, .T. ) ;
#19 = EDGE_CURVE ( 'NONE', #20, #21, #205, .T. ) ;
#20 = VERTEX_POINT ( 'NONE', #200 ) ;
#21 = VERTEX_POINT ( 'NONE', #199 ) ;
#22 = ORIENTED_EDGE ( 'NONE', *, *, #23, .T. ) ;
#23 = EDGE_CURVE ( 'NONE', #21, #24, #198, .T. ) ;
#24 = VERTEX_POINT ( 'NONE', #194 ) ;
#25 = ORIENTED_EDGE ( 'NONE', *, *, #26, .F. ) ;
#26 = EDGE_CURVE ( 'NONE', #27, #24, #192, .T. ) ;
#27 = VERTEX_POINT ( 'NONE', #193 ) ;
#28 = ORIENTED_EDGE ( 'NONE', *, *, #29, .F. ) ;
#29 = EDGE_CURVE ( 'NONE', #30, #27, #94, .T. ) ;
#30 = VERTEX_POINT ( 'NONE', #89 ) ;
#31 = ORIENTED_EDGE ( 'NONE', *, *, #32, .F. ) ;
#32 = EDGE_CURVE ( 'NONE', #20, #30, #87, .T. ) ;
#33 = ADVANCED_FACE ( 'NONE', ( #83 ), #72, .T. ) ;
#34 = EDGE_LOOP ( 'NONE', ( #35, #11, #156, #187 ) ) ;
#35 = ORIENTED_EDGE ( 'NONE', *, *, #26, .T. ) ;
#36 =( GEOMETRIC_REPRESENTATION_CONTEXT ( 3 ) GLOBAL_UNCERTAINTY_ASSIGNED_CONTEXT ( ( #37 ) ) GLOBAL_UNIT_ASSIGNED_CONTEXT ( ( #40, #39, #38 ) ) REPRESENTATION_CONTEXT ( 'NONE', 'WORKASPACE' ) );
#37 = UNCERTAINTY_MEASURE_WITH_UNIT (LENGTH_MEASURE( 1.000000000000000100E-005 ), #40, 'distance_accuracy_value', 'NONE');
#38 =( NAMED_UNIT ( * ) SI_UNIT ( $, .STERADIAN. ) SOLID_ANGLE_UNIT ( ) );
#39 =( NAMED_UNIT ( * ) PLANE_ANGLE_UNIT ( ) SI_UNIT ( $, .RADIAN. ) );
#40 =( LENGTH_UNIT ( ) NAMED_UNIT ( * ) SI_UNIT ( .MILLI., .METRE. ) );
#41 = MECHANICAL_DESIGN_GEOMETRIC_PRESENTATION_REPRESENTATION (  '', ( #141 ), #36 ) ;
#42 = ORIENTED_EDGE ( 'NONE', *, *, #114, .T. ) ;
#43 = UNCERTAINTY_MEASURE_WITH_UNIT (LENGTH_MEASURE( 1.000000000000000100E-005 ), #59, 'distance_accuracy_value', 'NONE');
#44 =( NAMED_UNIT ( * ) SI_UNIT ( $, .STERADIAN. ) SOLID_ANGLE_UNIT ( ) );
#45 =( GEOMETRIC_REPRESENTATION_CONTEXT ( 3 ) GLOBAL_UNCERTAINTY_ASSIGNED_CONTEXT ( ( #51 ) ) GLOBAL_UNIT_ASSIGNED_CONTEXT ( ( #132, #53, #52 ) ) REPRESENTATION_CONTEXT ( 'NONE', 'WORKASPACE' ) );
#46 =( LENGTH_UNIT ( ) NAMED_UNIT ( * ) SI_UNIT ( .MILLI., .METRE. ) );
#47 = UNCERTAINTY_MEASURE_WITH_UNIT (LENGTH_MEASURE( 1.000000000000000100E-005 ), #46, 'distance_accuracy_value', 'NONE');
#48 =( NAMED_UNIT ( * ) SI_UNIT ( $, .STERADIAN. ) SOLID_ANGLE_UNIT ( ) );
#49 = ORIENTED_EDGE ( 'NONE', *, *, #19, .F. ) ;
#50 =( GEOMETRIC_REPRESENTATION_CONTEXT ( 3 ) GLOBAL_UNCERTAINTY_ASSIGNED_CONTEXT ( ( #47 ) ) GLOBAL_UNIT_ASSIGNED_CONTEXT ( ( #46, #96, #48 ) ) REPRESENTATION_CONTEXT ( 'NONE', 'WORKASPACE' ) );
#51 = UNCERTAINTY_MEASURE_WITH_UNIT (LENGTH_MEASURE( 1.000000000000000100E-005 ), #132, 'distance_accuracy_value', 'NONE');
#52 =( NAMED_UNIT ( * ) SI_UNIT ( $, .STERADIAN. ) SOLID_ANGLE_UNIT ( ) );
#53 =( NAMED_UNIT ( * ) PLANE_ANGLE_UNIT ( ) SI_UNIT ( $, .RADIAN. ) );
#54 = ORIENTED_EDGE ( 'NONE', *, *, #157, .T. ) ;
#55 = MECHANICAL_DESIGN_GEOMETRIC_PRESENTATION_REPRESENTATION (  '', ( #57 ), #50 ) ;
#56 = PRESENTATION_LAYER_ASSIGNMENT (  '', '', ( #57 ) ) ;
#57 = STYLED_ITEM ( 'NONE', ( #58 ), #1 ) ;
#58 = PRESENTATION_STYLE_ASSIGNMENT (( #175 ) ) ;
#59 =( LENGTH_UNIT ( ) NAMED_UNIT ( * ) SI_UNIT ( .MILLI., .METRE. ) );
#60 = MECHANICAL_DESIGN_GEOMETRIC_PRESENTATION_REPRESENTATION (  '', ( #62 ), #173 ) ;
#61 = PRESENTATION_LAYER_ASSIGNMENT (  '', '', ( #62 ) ) ;
#62 = STYLED_ITEM ( 'NONE', ( #162 ), #9 ) ;
#63 = DIRECTION ( 'NONE',  ( -1.224606353822377300E-016, -1.000000000000000000, 0.0000000000000000000 ) ) ;
#64 = DIRECTION ( 'NONE',  ( -1.000000000000000000, 1.224606353822377300E-016, 0.0000000000000000000 ) ) ;
#65 = CARTESIAN_POINT ( 'NONE',  ( 0.0000000000000000000, 0.0000000000000000000, -127.4600000000000200 ) ) ;
#66 = AXIS2_PLACEMENT_3D ( 'NONE', #65, #64, #63 ) ;
#67 = DIRECTION ( 'NONE',  ( 0.0000000000000000000, 1.000000000000000000, 0.0000000000000000000 ) ) ;
#68 = DIRECTION ( 'NONE',  ( -1.000000000000000000, 0.0000000000000000000, 0.0000000000000000000 ) ) ;
#69 = CARTESIAN_POINT ( 'NONE',  ( 0.0000000000000000000, 0.0000000000000000000, -127.4600000000000200 ) ) ;
#70 = AXIS2_PLACEMENT_3D ( 'NONE', #69, #68, #67 ) ;
#71 = CIRCLE ( 'NONE', #66, 128.7700000000000100 ) ;
#72 = SPHERICAL_SURFACE ( 'NONE', #70, 128.7700000000000100 ) ;
#73 =( GEOMETRIC_REPRESENTATION_CONTEXT ( 3 ) GLOBAL_UNCERTAINTY_ASSIGNED_CONTEXT ( ( #110 ) ) GLOBAL_UNIT_ASSIGNED_CONTEXT ( ( #113, #112, #111 ) ) REPRESENTATION_CONTEXT ( 'NONE', 'WORKASPACE' ) );
#74 = MECHANICAL_DESIGN_GEOMETRIC_PRESENTATION_REPRESENTATION (  '', ( #76 ), #73 ) ;
#75 = PRESENTATION_LAYER_ASSIGNMENT (  '', '', ( #76 ) ) ;
#76 = STYLED_ITEM ( 'NONE', ( #77 ), #33 ) ;
#77 = PRESENTATION_STYLE_ASSIGNMENT (( #78 ) ) ;
#78 = SURFACE_STYLE_USAGE ( .BOTH. , #79 ) ;
#79 = SURFACE_SIDE_STYLE ('',( #80 ) ) ;
#80 = SURFACE_STYLE_FILL_AREA ( #81 ) ;
#81 = FILL_AREA_STYLE ('',( #88 ) ) ;
#82 = COLOUR_RGB ( '',0.9568627450980391500, 0.9490196078431372100, 0.9607843137254902200 ) ;
#83 = FACE_OUTER_BOUND ( 'NONE', #34, .T. ) ;
#84 = DIRECTION ( 'NONE',  ( -0.0000000000000000000, -0.0000000000000000000, 1.000000000000000000 ) ) ;
#85 = VECTOR ( 'NONE', #84, 1000.000000000000000 ) ;
#86 = CARTESIAN_POINT ( 'NONE',  ( 15.00000000000000000, 0.0000000000000000000, 4.308132045400366600 ) ) ;
#87 = LINE ( 'NONE', #86, #85 ) ;
#88 = FILL_AREA_STYLE_COLOUR ( '', #82 ) ;
#89 = CARTESIAN_POINT ( 'NONE',  ( 15.00000000000000400, 0.0000000000000000000, 0.4333653478553181100 ) ) ;
#90 = DIRECTION ( 'NONE',  ( 1.000000000000000000, 0.0000000000000000000, 0.0000000000000000000 ) ) ;
#91 = DIRECTION ( 'NONE',  ( -0.0000000000000000000, -0.0000000000000000000, 1.000000000000000000 ) ) ;
#92 = CARTESIAN_POINT ( 'NONE',  ( 0.0000000000000000000, 0.0000000000000000000, 0.4333653478553181100 ) ) ;
#93 = AXIS2_PLACEMENT_3D ( 'NONE', #92, #91, #90 ) ;
#94 = CIRCLE ( 'NONE', #93, 15.00000000000000200 ) ;
#95 = ORIENTED_EDGE ( 'NONE', *, *, #5, .F. ) ;
#96 =( NAMED_UNIT ( * ) PLANE_ANGLE_UNIT ( ) SI_UNIT ( $, .RADIAN. ) );
#97 = COLOUR_RGB ( '',0.9568627450980391500, 0.9490196078431372100, 0.9607843137254902200 ) ;
#98 = FACE_OUTER_BOUND ( 'NONE', #2, .T. ) ;
#99 = EDGE_CURVE ( 'NONE', #14, #171, #71, .T. ) ;
#100 = SURFACE_STYLE_FILL_AREA ( #101 ) ;
#101 = FILL_AREA_STYLE ('',( #102 ) ) ;
#102 = FILL_AREA_STYLE_COLOUR ( '', #107 ) ;
#103 = DIRECTION ( 'NONE',  ( 1.000000000000000000, 0.0000000000000000000, 0.0000000000000000000 ) ) ;
#104 = DIRECTION ( 'NONE',  ( 0.0000000000000000000, -0.0000000000000000000, 1.000000000000000000 ) ) ;
#105 = CARTESIAN_POINT ( 'NONE',  ( 0.0000000000000000000, 4.812861920649097600E-016, -1.310000000000000100 ) ) ;
#106 = AXIS2_PLACEMENT_3D ( 'NONE', #105, #104, #103 ) ;
#107 = COLOUR_RGB ( '',0.9568627450980391500, 0.9490196078431372100, 0.9607843137254902200 ) ;
#108 = FACE_OUTER_BOUND ( 'NONE', #155, .T. ) ;
#109 =( NAMED_UNIT ( * ) PLANE_ANGLE_UNIT ( ) SI_UNIT ( $, .RADIAN. ) );
#110 = UNCERTAINTY_MEASURE_WITH_UNIT (LENGTH_MEASURE( 1.000000000000000100E-005 ), #113, 'distance_accuracy_value', 'NONE');
#111 =( NAMED_UNIT ( * ) SI_UNIT ( $, .STERADIAN. ) SOLID_ANGLE_UNIT ( ) );
#112 =( NAMED_UNIT ( * ) PLANE_ANGLE_UNIT ( ) SI_UNIT ( $, .RADIAN. ) );
#113 =( LENGTH_UNIT ( ) NAMED_UNIT ( * ) SI_UNIT ( .MILLI., .METRE. ) );
#114 = EDGE_CURVE ( 'NONE', #14, #30, #240, .T. ) ;
#115 =( LENGTH_UNIT ( ) NAMED_UNIT ( * ) SI_UNIT ( .MILLI., .METRE. ) );
#116 = MECHANICAL_DESIGN_GEOMETRIC_PRESENTATION_REPRESENTATION (  '', ( #118 ), #150 ) ;
#117 = PRESENTATION_LAYER_ASSIGNMENT (  '', '', ( #118 ) ) ;
#118 = STYLED_ITEM ( 'NONE', ( #119 ), #15 ) ;
#119 = PRESENTATION_STYLE_ASSIGNMENT (( #120 ) ) ;
#120 = SURFACE_STYLE_USAGE ( .BOTH. , #121 ) ;
#121 = SURFACE_SIDE_STYLE ('',( #122 ) ) ;
#122 = SURFACE_STYLE_FILL_AREA ( #123 ) ;
#123 = FILL_AREA_STYLE ('',( #124 ) ) ;
#124 = FILL_AREA_STYLE_COLOUR ( '', #125 ) ;
#125 = COLOUR_RGB ( '',0.7960784313725489700, 0.8235294117647058400, 0.9372549019607843100 ) ;
#126 = CARTESIAN_POINT ( 'NONE',  ( -1.836909530733571800E-015, -15.00000000000004800, 0.4333653478553185500 ) ) ;
#127 = DIRECTION ( 'NONE',  ( 0.0000000000000000000, 1.000000000000000000, 0.0000000000000000000 ) ) ;
#128 = DIRECTION ( 'NONE',  ( -1.000000000000000000, 0.0000000000000000000, 0.0000000000000000000 ) ) ;
#129 = CARTESIAN_POINT ( 'NONE',  ( 0.0000000000000000000, 0.0000000000000000000, -127.4600000000000200 ) ) ;
#130 = AXIS2_PLACEMENT_3D ( 'NONE', #129, #128, #127 ) ;
#131 = SPHERICAL_SURFACE ( 'NONE', #130, 128.7700000000000100 ) ;
#132 =( LENGTH_UNIT ( ) NAMED_UNIT ( * ) SI_UNIT ( .MILLI., .METRE. ) );
#133 = MECHANICAL_DESIGN_GEOMETRIC_PRESENTATION_REPRESENTATION (  '', ( #135 ), #45 ) ;
#134 = PRESENTATION_LAYER_ASSIGNMENT (  '', '', ( #135 ) ) ;
#135 = STYLED_ITEM ( 'NONE', ( #136 ), #13 ) ;
#136 = PRESENTATION_STYLE_ASSIGNMENT (( #137 ) ) ;
#137 = SURFACE_STYLE_USAGE ( .BOTH. , #138 ) ;
#138 = SURFACE_SIDE_STYLE ('',( #100 ) ) ;
#139 = ORIENTED_EDGE ( 'NONE', *, *, #29, .T. ) ;
#140 = PRESENTATION_LAYER_ASSIGNMENT (  '', '', ( #141 ) ) ;
#141 = STYLED_ITEM ( 'NONE', ( #142 ), #16 ) ;
#142 = PRESENTATION_STYLE_ASSIGNMENT (( #143 ) ) ;
#143 = SURFACE_STYLE_USAGE ( .BOTH. , #144 ) ;
#144 = SURFACE_SIDE_STYLE ('',( #145 ) ) ;
#145 = SURFACE_STYLE_FILL_AREA ( #146 ) ;
#146 = FILL_AREA_STYLE ('',( #147 ) ) ;
#147 = FILL_AREA_STYLE_COLOUR ( '', #148 ) ;
#148 = COLOUR_RGB ( '',0.9568627450980391500, 0.9490196078431372100, 0.9607843137254902200 ) ;
#149 = FACE_OUTER_BOUND ( 'NONE', #17, .T. ) ;
#150 =( GEOMETRIC_REPRESENTATION_CONTEXT ( 3 ) GLOBAL_UNCERTAINTY_ASSIGNED_CONTEXT ( ( #206 ) ) GLOBAL_UNIT_ASSIGNED_CONTEXT ( ( #115, #208, #207 ) ) REPRESENTATION_CONTEXT ( 'NONE', 'WORKASPACE' ) );
#151 = CARTESIAN_POINT ( 'NONE',  ( 0.0000000000000000000, 0.0000000000000000000, -1.310000000000000500 ) ) ;
#152 = AXIS2_PLACEMENT_3D ( 'NONE', #151, #170, #169 ) ;
#153 = CIRCLE ( 'NONE', #152, 15.00000000000000000 ) ;
#154 = FACE_OUTER_BOUND ( 'NONE', #10, .T. ) ;
#155 = EDGE_LOOP ( 'NONE', ( #12, #42, #139, #54 ) ) ;
#156 = ORIENTED_EDGE ( 'NONE', *, *, #99, .T. ) ;
#157 = EDGE_CURVE ( 'NONE', #27, #171, #227, .T. ) ;
#158 = DIRECTION ( 'NONE',  ( 1.000000000000000000, 0.0000000000000000000, 0.0000000000000000000 ) ) ;
#159 = DIRECTION ( 'NONE',  ( -0.0000000000000000000, -0.0000000000000000000, 1.000000000000000000 ) ) ;
#160 = CARTESIAN_POINT ( 'NONE',  ( 0.0000000000000000000, 0.0000000000000000000, 4.308132045400366600 ) ) ;
#161 = AXIS2_PLACEMENT_3D ( 'NONE', #160, #159, #158 ) ;
#162 = PRESENTATION_STYLE_ASSIGNMENT (( #163 ) ) ;
#163 = SURFACE_STYLE_USAGE ( .BOTH. , #164 ) ;
#164 = SURFACE_SIDE_STYLE ('',( #165 ) ) ;
#165 = SURFACE_STYLE_FILL_AREA ( #166 ) ;
#166 = FILL_AREA_STYLE ('',( #167 ) ) ;
#167 = FILL_AREA_STYLE_COLOUR ( '', #168 ) ;
#168 = COLOUR_RGB ( '',0.9568627450980391500, 0.9490196078431372100, 0.9607843137254902200 ) ;
#169 = DIRECTION ( 'NONE',  ( 1.000000000000000000, 0.0000000000000000000, 0.0000000000000000000 ) ) ;
#170 = DIRECTION ( 'NONE',  ( -0.0000000000000000000, -0.0000000000000000000, 1.000000000000000000 ) ) ;
#171 = VERTEX_POINT ( 'NONE', #245 ) ;
#172 = PLANE ( 'NONE',  #106 ) ;
#173 =( GEOMETRIC_REPRESENTATION_CONTEXT ( 3 ) GLOBAL_UNCERTAINTY_ASSIGNED_CONTEXT ( ( #43 ) ) GLOBAL_UNIT_ASSIGNED_CONTEXT ( ( #59, #109, #44 ) ) REPRESENTATION_CONTEXT ( 'NONE', 'WORKASPACE' ) );
#174 = CYLINDRICAL_SURFACE ( 'NONE', #161, 15.00000000000000000 ) ;
#175 = SURFACE_STYLE_USAGE ( .BOTH. , #176 ) ;
#176 = SURFACE_SIDE_STYLE ('',( #177 ) ) ;
#177 = SURFACE_STYLE_FILL_AREA ( #178 ) ;
#178 = FILL_AREA_STYLE ('',( #179 ) ) ;
#179 = FILL_AREA_STYLE_COLOUR ( '', #97 ) ;
#180 = CLOSED_SHELL ( 'NONE', ( #16, #33, #13, #1, #9 ) ) ;
#181 = DIRECTION ( 'NONE',  ( 1.000000000000000000, 0.0000000000000000000, 0.0000000000000000000 ) ) ;
#182 = DIRECTION ( 'NONE',  ( -0.0000000000000000000, -0.0000000000000000000, 1.000000000000000000 ) ) ;
#183 = AXIS2_PLACEMENT_3D ( 'NONE', #184, #182, #181 ) ;
#184 = CARTESIAN_POINT ( 'NONE',  ( 0.0000000000000000000, 0.0000000000000000000, 4.308132045400366600 ) ) ;
#185 = CYLINDRICAL_SURFACE ( 'NONE', #183, 15.00000000000000000 ) ;
#186 = EDGE_CURVE ( 'NONE', #24, #14, #261, .T. ) ;
#187 = ORIENTED_EDGE ( 'NONE', *, *, #157, .F. ) ;
#188 = DIRECTION ( 'NONE',  ( 1.000000000000000000, 0.0000000000000000000, 0.0000000000000000000 ) ) ;
#189 = DIRECTION ( 'NONE',  ( -0.0000000000000000000, -0.0000000000000000000, 1.000000000000000000 ) ) ;
#190 = CARTESIAN_POINT ( 'NONE',  ( 0.0000000000000000000, 0.0000000000000000000, 0.4333653478553181100 ) ) ;
#191 = AXIS2_PLACEMENT_3D ( 'NONE', #190, #189, #188 ) ;
#192 = CIRCLE ( 'NONE', #191, 15.00000000000000200 ) ;
#193 = CARTESIAN_POINT ( 'NONE',  ( 0.0000000000000000000, 15.00000000000004800, 0.4333653478553185500 ) ) ;
#194 = CARTESIAN_POINT ( 'NONE',  ( -15.00000000000000400, 1.836909530733566300E-015, 0.4333653478553181100 ) ) ;
#195 = DIRECTION ( 'NONE',  ( -0.0000000000000000000, -0.0000000000000000000, 1.000000000000000000 ) ) ;
#196 = VECTOR ( 'NONE', #195, 1000.000000000000000 ) ;
#197 = CARTESIAN_POINT ( 'NONE',  ( -15.00000000000000000, 1.836909530733565900E-015, 4.308132045400366600 ) ) ;
#198 = LINE ( 'NONE', #197, #196 ) ;
#199 = CARTESIAN_POINT ( 'NONE',  ( -15.00000000000000000, 1.836909530733565900E-015, -1.310000000000000500 ) ) ;
#200 = CARTESIAN_POINT ( 'NONE',  ( 15.00000000000000000, 0.0000000000000000000, -1.310000000000000500 ) ) ;
#201 = DIRECTION ( 'NONE',  ( 1.000000000000000000, 0.0000000000000000000, 0.0000000000000000000 ) ) ;
#202 = DIRECTION ( 'NONE',  ( -0.0000000000000000000, -0.0000000000000000000, 1.000000000000000000 ) ) ;
#203 = CARTESIAN_POINT ( 'NONE',  ( 0.0000000000000000000, 0.0000000000000000000, -1.310000000000000500 ) ) ;
#204 = AXIS2_PLACEMENT_3D ( 'NONE', #203, #202, #201 ) ;
#205 = CIRCLE ( 'NONE', #204, 15.00000000000000000 ) ;
#206 = UNCERTAINTY_MEASURE_WITH_UNIT (LENGTH_MEASURE( 1.000000000000000100E-005 ), #115, 'distance_accuracy_value', 'NONE');
#207 =( NAMED_UNIT ( * ) SI_UNIT ( $, .STERADIAN. ) SOLID_ANGLE_UNIT ( ) );
#208 =( NAMED_UNIT ( * ) PLANE_ANGLE_UNIT ( ) SI_UNIT ( $, .RADIAN. ) );
#209 = DIRECTION ( 'NONE',  ( 1.000000000000000000, 0.0000000000000000000, 0.0000000000000000000 ) ) ;
#210 = DIRECTION ( 'NONE',  ( 0.0000000000000000000, 0.0000000000000000000, -1.000000000000000000 ) ) ;
#211 = PRODUCT_DEFINITION_SHAPE ( 'NONE', 'NONE',  #214 ) ;
#212 = PRODUCT_RELATED_PRODUCT_CATEGORY ( 'part', '', ( #218 ) ) ;
#213 = PRODUCT_DEFINITION_FORMATION_WITH_SPECIFIED_SOURCE ( 'ANY', '', #218, .NOT_KNOWN. ) ;
#214 = PRODUCT_DEFINITION ( 'UNKNOWN', '', #213, #215 ) ;
#215 = PRODUCT_DEFINITION_CONTEXT ( 'detailed design', #217, 'design' ) ;
#216 = APPLICATION_PROTOCOL_DEFINITION ( 'draft international standard', 'automotive_design', 1998, #217 ) ;
#217 = APPLICATION_CONTEXT ( 'automotive_design' ) ;
#218 = PRODUCT ( '19315-E0W', '19315-E0W', '', ( #219 ) ) ;
#219 = PRODUCT_CONTEXT ( 'NONE', #253, 'mechanical' ) ;
#220 = APPLICATION_PROTOCOL_DEFINITION ( 'draft international standard', 'automotive_design', 1998, #253 ) ;
#221 = SHAPE_DEFINITION_REPRESENTATION ( #211, #228 ) ;
#222 =( GEOMETRIC_REPRESENTATION_CONTEXT ( 3 ) GLOBAL_UNCERTAINTY_ASSIGNED_CONTEXT ( ( #234 ) ) GLOBAL_UNIT_ASSIGNED_CONTEXT ( ( #229, #258, #233 ) ) REPRESENTATION_CONTEXT ( 'NONE', 'WORKASPACE' ) );
#223 = DIRECTION ( 'NONE',  ( 1.000000000000000000, 0.0000000000000000000, 0.0000000000000000000 ) ) ;
#224 = DIRECTION ( 'NONE',  ( -0.0000000000000000000, -0.0000000000000000000, 1.000000000000000000 ) ) ;
#225 = CARTESIAN_POINT ( 'NONE',  ( 0.0000000000000000000, 0.0000000000000000000, 0.4333653478553181100 ) ) ;
#226 = AXIS2_PLACEMENT_3D ( 'NONE', #225, #224, #223 ) ;
#227 = CIRCLE ( 'NONE', #254, 128.7700000000000400 ) ;
#228 = ADVANCED_BREP_SHAPE_REPRESENTATION ( '19315-E0W', ( #15, #230 ), #222 ) ;
#229 =( LENGTH_UNIT ( ) NAMED_UNIT ( * ) SI_UNIT ( .MILLI., .METRE. ) );
#230 = AXIS2_PLACEMENT_3D ( 'NONE', #232, #242, #243 ) ;
#231 =( GEOMETRIC_REPRESENTATION_CONTEXT ( 3 ) GLOBAL_UNCERTAINTY_ASSIGNED_CONTEXT ( ( #246 ) ) GLOBAL_UNIT_ASSIGNED_CONTEXT ( ( #256, #255, #247 ) ) REPRESENTATION_CONTEXT ( 'NONE', 'WORKASPACE' ) );
#232 = CARTESIAN_POINT ( 'NONE',  ( 0.0000000000000000000, 0.0000000000000000000, 0.0000000000000000000 ) ) ;
#233 =( NAMED_UNIT ( * ) SI_UNIT ( $, .STERADIAN. ) SOLID_ANGLE_UNIT ( ) );
#234 = UNCERTAINTY_MEASURE_WITH_UNIT (LENGTH_MEASURE( 1.000000000000000100E-005 ), #229, 'distance_accuracy_value', 'NONE');
#235 = MECHANICAL_DESIGN_GEOMETRIC_PRESENTATION_REPRESENTATION (  '', ( #237 ), #231 ) ;
#236 = PRESENTATION_LAYER_ASSIGNMENT (  '', '', ( #237 ) ) ;
#237 = STYLED_ITEM ( 'NONE', ( #238 ), #228 ) ;
#238 = PRESENTATION_STYLE_ASSIGNMENT (( #239 ) ) ;
#239 = SURFACE_STYLE_USAGE ( .BOTH. , #248 ) ;
#240 = CIRCLE ( 'NONE', #260, 15.00000000000000200 ) ;
#241 = CARTESIAN_POINT ( 'NONE',  ( 0.0000000000000000000, 0.0000000000000000000, -127.4600000000000200 ) ) ;
#242 = DIRECTION ( 'NONE',  ( 0.0000000000000000000, 0.0000000000000000000, 1.000000000000000000 ) ) ;
#243 = DIRECTION ( 'NONE',  ( 1.000000000000000000, 0.0000000000000000000, 0.0000000000000000000 ) ) ;
#244 = DIRECTION ( 'NONE',  ( -0.0000000000000000000, -0.0000000000000000000, 1.000000000000000000 ) ) ;
#245 = CARTESIAN_POINT ( 'NONE',  ( 0.0000000000000000000, 7.884628009085377400E-015, 1.310000000000005600 ) ) ;
#246 = UNCERTAINTY_MEASURE_WITH_UNIT (LENGTH_MEASURE( 1.000000000000000100E-005 ), #256, 'distance_accuracy_value', 'NONE');
#247 =( NAMED_UNIT ( * ) SI_UNIT ( $, .STERADIAN. ) SOLID_ANGLE_UNIT ( ) );
#248 = SURFACE_SIDE_STYLE ('',( #249 ) ) ;
#249 = SURFACE_STYLE_FILL_AREA ( #250 ) ;
#250 = FILL_AREA_STYLE ('',( #251 ) ) ;
#251 = FILL_AREA_STYLE_COLOUR ( '', #252 ) ;
#252 = COLOUR_RGB ( '',0.7960784313725489700, 0.8235294117647058400, 0.9372549019607843100 ) ;
#253 = APPLICATION_CONTEXT ( 'automotive_design' ) ;
#254 = AXIS2_PLACEMENT_3D ( 'NONE', #241, #257, #210 ) ;
#255 =( NAMED_UNIT ( * ) PLANE_ANGLE_UNIT ( ) SI_UNIT ( $, .RADIAN. ) );
#256 =( LENGTH_UNIT ( ) NAMED_UNIT ( * ) SI_UNIT ( .MILLI., .METRE. ) );
#257 = DIRECTION ( 'NONE',  ( 1.000000000000000000, 0.0000000000000000000, 0.0000000000000000000 ) ) ;
#258 =( NAMED_UNIT ( * ) PLANE_ANGLE_UNIT ( ) SI_UNIT ( $, .RADIAN. ) );
#259 = CARTESIAN_POINT ( 'NONE',  ( 0.0000000000000000000, 0.0000000000000000000, 0.4333653478553181100 ) ) ;
#260 = AXIS2_PLACEMENT_3D ( 'NONE', #259, #244, #209 ) ;
#261 = CIRCLE ( 'NONE', #226, 15.00000000000000200 ) ;
ENDSEC;
END-ISO-10303-21;
