ISO-10303-21;
HEADER;
FILE_DESCRIPTION (( 'STEP AP203' ),
    '1' );
FILE_NAME ('Web Model 68385.STEP',
    '2017-01-31T19:53:21',
    ( '' ),
    ( '' ),
    'SwSTEP 2.0',
    'SolidWorks 2016',
    '' );
FILE_SCHEMA (( 'CONFIG_CONTROL_DESIGN' ));
ENDSEC;

DATA;
#1 = AXIS2_PLACEMENT_3D ( 'NONE', #169, #61, #151 ) ;
#2 =( GEOMETRIC_REPRESENTATION_CONTEXT ( 3 ) GLOBAL_UNCERTAINTY_ASSIGNED_CONTEXT ( ( #123 ) ) GLOBAL_UNIT_ASSIGNED_CONTEXT ( ( #77, #172, #47 ) ) REPRESENTATION_CONTEXT ( 'NONE', 'WORKASPACE' ) );
#3 = CC_DESIGN_DATE_AND_TIME_ASSIGNMENT ( #31, #83, ( #14 ) ) ;
#4 = CYLINDRICAL_SURFACE ( 'NONE', #90, 12.50000000000000000 ) ;
#5 = CARTESIAN_POINT ( 'NONE',  ( 12.50000000000000000, 1.530808498934191500E-015, 3.000000000000000000 ) ) ;
#6 = PERSON_AND_ORGANIZATION ( #126, #113 ) ;
#7 = EDGE_CURVE ( 'NONE', #152, #11, #79, .T. ) ;
#8 = PRODUCT_DEFINITION_FORMATION_WITH_SPECIFIED_SOURCE ( 'ANY', '', #38, .NOT_KNOWN. ) ;
#9 = CARTESIAN_POINT ( 'NONE',  ( -12.50000000000000000, 0.0000000000000000000, 3.000000000000000000 ) ) ;
#10 = APPLICATION_PROTOCOL_DEFINITION ( 'international standard', 'config_control_design', 1994, #49 ) ;
#11 = VERTEX_POINT ( 'NONE', #5 ) ;
#12 = LOCAL_TIME ( 14, 53, 21.00000000000000000, #29 ) ;
#13 = CC_DESIGN_PERSON_AND_ORGANIZATION_ASSIGNMENT ( #97, #139, ( #142 ) ) ;
#14 = SECURITY_CLASSIFICATION ( '', '', #132 ) ;
#15 = PERSON_AND_ORGANIZATION_ROLE ( 'classification_officer' ) ;
#16 = CALENDAR_DATE ( 2017, 31, 1 ) ;
#17 = CARTESIAN_POINT ( 'NONE',  ( -12.50000000000000000, 0.0000000000000000000, 0.0000000000000000000 ) ) ;
#18 = ORIENTED_EDGE ( 'NONE', *, *, #7, .F. ) ;
#19 = APPROVAL_PERSON_ORGANIZATION ( #25, #51, #21 ) ;
#20 = CC_DESIGN_DATE_AND_TIME_ASSIGNMENT ( #118, #63, ( #142 ) ) ;
#21 = APPROVAL_ROLE ( '' ) ;
#22 = CIRCLE ( 'NONE', #173, 12.50000000000000000 ) ;
#23 = ADVANCED_BREP_SHAPE_REPRESENTATION ( 'Web Model 68385', ( #57, #67 ), #2 ) ;
#24 = ORIENTED_EDGE ( 'NONE', *, *, #122, .T. ) ;
#25 = PERSON_AND_ORGANIZATION ( #126, #113 ) ;
#26 = ORIENTED_EDGE ( 'NONE', *, *, #7, .T. ) ;
#27 = CC_DESIGN_APPROVAL ( #114, ( #14 ) ) ;
#28 = ADVANCED_FACE ( 'NONE', ( #121 ), #72, .F. ) ;
#29 = COORDINATED_UNIVERSAL_TIME_OFFSET ( 5, 0, .BEHIND. ) ;
#30 = APPROVAL_ROLE ( '' ) ;
#31 = DATE_AND_TIME ( #16, #12 ) ;
#32 = CARTESIAN_POINT ( 'NONE',  ( 0.0000000000000000000, 0.0000000000000000000, 3.000000000000000000 ) ) ;
#33 = DIRECTION ( 'NONE',  ( 0.0000000000000000000, 0.0000000000000000000, 1.000000000000000000 ) ) ;
#34 = CC_DESIGN_PERSON_AND_ORGANIZATION_ASSIGNMENT ( #160, #89, ( #38 ) ) ;
#35 = DIRECTION ( 'NONE',  ( -1.000000000000000000, 0.0000000000000000000, 0.0000000000000000000 ) ) ;
#36 = COORDINATED_UNIVERSAL_TIME_OFFSET ( 5, 0, .BEHIND. ) ;
#37 = CIRCLE ( 'NONE', #65, 12.50000000000000000 ) ;
#38 = PRODUCT ( 'Web Model 68385', 'Web Model 68385', '', ( #171 ) ) ;
#39 = DESIGN_CONTEXT ( 'detailed design', #49, 'design' ) ;
#40 = APPROVAL_DATE_TIME ( #133, #95 ) ;
#41 = ADVANCED_FACE ( 'NONE', ( #91 ), #43, .T. ) ;
#42 = ORIENTED_EDGE ( 'NONE', *, *, #44, .F. ) ;
#43 = PLANE ( 'NONE',  #155 ) ;
#44 = EDGE_CURVE ( 'NONE', #102, #143, #159, .T. ) ;
#45 = DIRECTION ( 'NONE',  ( -0.0000000000000000000, -0.0000000000000000000, -1.000000000000000000 ) ) ;
#46 = CC_DESIGN_SECURITY_CLASSIFICATION ( #14, ( #8 ) ) ;
#47 =( NAMED_UNIT ( * ) SI_UNIT ( $, .STERADIAN. ) SOLID_ANGLE_UNIT ( ) );
#48 = CC_DESIGN_APPROVAL ( #51, ( #142 ) ) ;
#49 = APPLICATION_CONTEXT ( 'configuration controlled 3d designs of mechanical parts and assemblies' ) ;
#50 = PRODUCT_RELATED_PRODUCT_CATEGORY ( 'detail', '', ( #38 ) ) ;
#51 = APPROVAL ( #101, 'UNSPECIFIED' ) ;
#52 = DATE_AND_TIME ( #53, #157 ) ;
#53 = CALENDAR_DATE ( 2017, 31, 1 ) ;
#54 = AXIS2_PLACEMENT_3D ( 'NONE', #59, #109, #166 ) ;
#55 = EDGE_LOOP ( 'NONE', ( #66, #18, #64, #163 ) ) ;
#56 = PERSON_AND_ORGANIZATION_ROLE ( 'design_supplier' ) ;
#57 = MANIFOLD_SOLID_BREP ( 'Extrude1', #105 ) ;
#58 = CARTESIAN_POINT ( 'NONE',  ( 12.50000000000000000, 1.530808498934191500E-015, 0.0000000000000000000 ) ) ;
#59 = CARTESIAN_POINT ( 'NONE',  ( 0.0000000000000000000, 0.0000000000000000000, 0.0000000000000000000 ) ) ;
#60 = DIRECTION ( 'NONE',  ( 1.000000000000000000, 0.0000000000000000000, 0.0000000000000000000 ) ) ;
#61 = DIRECTION ( 'NONE',  ( 0.0000000000000000000, 0.0000000000000000000, 1.000000000000000000 ) ) ;
#62 = APPLICATION_PROTOCOL_DEFINITION ( 'international standard', 'config_control_design', 1994, #76 ) ;
#63 = DATE_TIME_ROLE ( 'creation_date' ) ;
#64 = ORIENTED_EDGE ( 'NONE', *, *, #149, .T. ) ;
#65 = AXIS2_PLACEMENT_3D ( 'NONE', #100, #119, #148 ) ;
#66 = ORIENTED_EDGE ( 'NONE', *, *, #129, .F. ) ;
#67 = AXIS2_PLACEMENT_3D ( 'NONE', #108, #75, #153 ) ;
#68 = CALENDAR_DATE ( 2017, 31, 1 ) ;
#69 = VECTOR ( 'NONE', #45, 1000.000000000000000 ) ;
#70 = CC_DESIGN_APPROVAL ( #95, ( #8 ) ) ;
#71 = PERSON_AND_ORGANIZATION_ROLE ( 'creator' ) ;
#72 = PLANE ( 'NONE',  #54 ) ;
#73 = ORIENTED_EDGE ( 'NONE', *, *, #149, .F. ) ;
#74 = DIRECTION ( 'NONE',  ( 1.000000000000000000, 0.0000000000000000000, -0.0000000000000000000 ) ) ;
#75 = DIRECTION ( 'NONE',  ( 0.0000000000000000000, 0.0000000000000000000, 1.000000000000000000 ) ) ;
#76 = APPLICATION_CONTEXT ( 'configuration controlled 3d designs of mechanical parts and assemblies' ) ;
#77 =( LENGTH_UNIT ( ) NAMED_UNIT ( * ) SI_UNIT ( .MILLI., .METRE. ) );
#78 = CALENDAR_DATE ( 2017, 31, 1 ) ;
#79 = CIRCLE ( 'NONE', #161, 12.50000000000000000 ) ;
#80 = DATE_AND_TIME ( #147, #92 ) ;
#81 = ADVANCED_FACE ( 'NONE', ( #99 ), #4, .T. ) ;
#82 = LINE ( 'NONE', #150, #136 ) ;
#83 = DATE_TIME_ROLE ( 'classification_date' ) ;
#84 = APPROVAL_PERSON_ORGANIZATION ( #165, #114, #30 ) ;
#85 = DIRECTION ( 'NONE',  ( -0.0000000000000000000, -0.0000000000000000000, -1.000000000000000000 ) ) ;
#86 = CARTESIAN_POINT ( 'NONE',  ( 0.0000000000000000000, 0.0000000000000000000, 3.000000000000000000 ) ) ;
#87 = EDGE_LOOP ( 'NONE', ( #42, #112 ) ) ;
#88 = PERSON_AND_ORGANIZATION ( #126, #113 ) ;
#89 = PERSON_AND_ORGANIZATION_ROLE ( 'design_owner' ) ;
#90 = AXIS2_PLACEMENT_3D ( 'NONE', #32, #85, #167 ) ;
#91 = FACE_OUTER_BOUND ( 'NONE', #141, .T. ) ;
#92 = LOCAL_TIME ( 14, 53, 21.00000000000000000, #131 ) ;
#93 = ORIENTED_EDGE ( 'NONE', *, *, #115, .T. ) ;
#94 = PERSON_AND_ORGANIZATION ( #126, #113 ) ;
#95 = APPROVAL ( #164, 'UNSPECIFIED' ) ;
#96 = APPROVAL_ROLE ( '' ) ;
#97 = PERSON_AND_ORGANIZATION ( #126, #113 ) ;
#98 = CARTESIAN_POINT ( 'NONE',  ( 0.0000000000000000000, 0.0000000000000000000, 3.000000000000000000 ) ) ;
#99 = FACE_OUTER_BOUND ( 'NONE', #55, .T. ) ;
#100 = CARTESIAN_POINT ( 'NONE',  ( 0.0000000000000000000, 0.0000000000000000000, 3.000000000000000000 ) ) ;
#101 = APPROVAL_STATUS ( 'not_yet_approved' ) ;
#102 = VERTEX_POINT ( 'NONE', #17 ) ;
#103 = FACE_OUTER_BOUND ( 'NONE', #127, .T. ) ;
#104 = APPROVAL_PERSON_ORGANIZATION ( #88, #95, #96 ) ;
#105 = CLOSED_SHELL ( 'NONE', ( #162, #81, #41, #28 ) ) ;
#106 = LINE ( 'NONE', #146, #69 ) ;
#107 = LOCAL_TIME ( 14, 53, 21.00000000000000000, #116 ) ;
#108 = CARTESIAN_POINT ( 'NONE',  ( 0.0000000000000000000, 0.0000000000000000000, 0.0000000000000000000 ) ) ;
#109 = DIRECTION ( 'NONE',  ( 0.0000000000000000000, 0.0000000000000000000, 1.000000000000000000 ) ) ;
#110 = DIRECTION ( 'NONE',  ( -0.0000000000000000000, -0.0000000000000000000, -1.000000000000000000 ) ) ;
#111 = AXIS2_PLACEMENT_3D ( 'NONE', #86, #110, #35 ) ;
#112 = ORIENTED_EDGE ( 'NONE', *, *, #115, .F. ) ;
#113 = ORGANIZATION ( 'UNSPECIFIED', 'UNSPECIFIED', '' ) ;
#114 = APPROVAL ( #144, 'UNSPECIFIED' ) ;
#115 = EDGE_CURVE ( 'NONE', #143, #102, #22, .T. ) ;
#116 = COORDINATED_UNIVERSAL_TIME_OFFSET ( 5, 0, .BEHIND. ) ;
#117 = ORIENTED_EDGE ( 'NONE', *, *, #129, .T. ) ;
#118 = DATE_AND_TIME ( #68, #107 ) ;
#119 = DIRECTION ( 'NONE',  ( 0.0000000000000000000, 0.0000000000000000000, 1.000000000000000000 ) ) ;
#120 = CARTESIAN_POINT ( 'NONE',  ( 0.0000000000000000000, 0.0000000000000000000, 0.0000000000000000000 ) ) ;
#121 = FACE_OUTER_BOUND ( 'NONE', #87, .T. ) ;
#122 = EDGE_CURVE ( 'NONE', #11, #152, #37, .T. ) ;
#123 = UNCERTAINTY_MEASURE_WITH_UNIT (LENGTH_MEASURE( 1.000000000000000100E-005 ), #77, 'distance_accuracy_value', 'NONE');
#124 = PRODUCT_DEFINITION_SHAPE ( 'NONE', 'NONE',  #142 ) ;
#125 = APPROVAL_DATE_TIME ( #80, #114 ) ;
#126 = PERSON ( 'UNSPECIFIED', 'UNSPECIFIED', 'UNSPECIFIED', ('UNSPECIFIED'), ('UNSPECIFIED'), ('UNSPECIFIED') ) ;
#127 = EDGE_LOOP ( 'NONE', ( #156, #117, #93, #73 ) ) ;
#128 = COORDINATED_UNIVERSAL_TIME_OFFSET ( 5, 0, .BEHIND. ) ;
#129 = EDGE_CURVE ( 'NONE', #11, #143, #82, .T. ) ;
#130 = CC_DESIGN_PERSON_AND_ORGANIZATION_ASSIGNMENT ( #137, #56, ( #8 ) ) ;
#131 = COORDINATED_UNIVERSAL_TIME_OFFSET ( 5, 0, .BEHIND. ) ;
#132 = SECURITY_CLASSIFICATION_LEVEL ( 'unclassified' ) ;
#133 = DATE_AND_TIME ( #78, #175 ) ;
#134 = DIRECTION ( 'NONE',  ( 1.000000000000000000, 0.0000000000000000000, 0.0000000000000000000 ) ) ;
#135 = CARTESIAN_POINT ( 'NONE',  ( 0.0000000000000000000, 0.0000000000000000000, 3.000000000000000000 ) ) ;
#136 = VECTOR ( 'NONE', #145, 1000.000000000000000 ) ;
#137 = PERSON_AND_ORGANIZATION ( #126, #113 ) ;
#138 = DIRECTION ( 'NONE',  ( 0.0000000000000000000, 0.0000000000000000000, 1.000000000000000000 ) ) ;
#139 = PERSON_AND_ORGANIZATION_ROLE ( 'creator' ) ;
#140 = SHAPE_DEFINITION_REPRESENTATION ( #124, #23 ) ;
#141 = EDGE_LOOP ( 'NONE', ( #26, #24 ) ) ;
#142 = PRODUCT_DEFINITION ( 'UNKNOWN', '', #8, #39 ) ;
#143 = VERTEX_POINT ( 'NONE', #58 ) ;
#144 = APPROVAL_STATUS ( 'not_yet_approved' ) ;
#145 = DIRECTION ( 'NONE',  ( -0.0000000000000000000, -0.0000000000000000000, -1.000000000000000000 ) ) ;
#146 = CARTESIAN_POINT ( 'NONE',  ( -12.50000000000000000, 0.0000000000000000000, 3.000000000000000000 ) ) ;
#147 = CALENDAR_DATE ( 2017, 31, 1 ) ;
#148 = DIRECTION ( 'NONE',  ( 1.000000000000000000, 0.0000000000000000000, 0.0000000000000000000 ) ) ;
#149 = EDGE_CURVE ( 'NONE', #152, #102, #106, .T. ) ;
#150 = CARTESIAN_POINT ( 'NONE',  ( 12.50000000000000000, 1.530808498934191500E-015, 3.000000000000000000 ) ) ;
#151 = DIRECTION ( 'NONE',  ( 1.000000000000000000, 0.0000000000000000000, 0.0000000000000000000 ) ) ;
#152 = VERTEX_POINT ( 'NONE', #9 ) ;
#153 = DIRECTION ( 'NONE',  ( 1.000000000000000000, 0.0000000000000000000, 0.0000000000000000000 ) ) ;
#154 = CYLINDRICAL_SURFACE ( 'NONE', #111, 12.50000000000000000 ) ;
#155 = AXIS2_PLACEMENT_3D ( 'NONE', #98, #33, #74 ) ;
#156 = ORIENTED_EDGE ( 'NONE', *, *, #122, .F. ) ;
#157 = LOCAL_TIME ( 14, 53, 21.00000000000000000, #128 ) ;
#158 = CC_DESIGN_PERSON_AND_ORGANIZATION_ASSIGNMENT ( #94, #71, ( #8 ) ) ;
#159 = CIRCLE ( 'NONE', #1, 12.50000000000000000 ) ;
#160 = PERSON_AND_ORGANIZATION ( #126, #113 ) ;
#161 = AXIS2_PLACEMENT_3D ( 'NONE', #135, #168, #60 ) ;
#162 = ADVANCED_FACE ( 'NONE', ( #103 ), #154, .T. ) ;
#163 = ORIENTED_EDGE ( 'NONE', *, *, #44, .T. ) ;
#164 = APPROVAL_STATUS ( 'not_yet_approved' ) ;
#165 = PERSON_AND_ORGANIZATION ( #126, #113 ) ;
#166 = DIRECTION ( 'NONE',  ( 1.000000000000000000, 0.0000000000000000000, -0.0000000000000000000 ) ) ;
#167 = DIRECTION ( 'NONE',  ( -1.000000000000000000, 0.0000000000000000000, 0.0000000000000000000 ) ) ;
#168 = DIRECTION ( 'NONE',  ( 0.0000000000000000000, 0.0000000000000000000, 1.000000000000000000 ) ) ;
#169 = CARTESIAN_POINT ( 'NONE',  ( 0.0000000000000000000, 0.0000000000000000000, 0.0000000000000000000 ) ) ;
#170 = CC_DESIGN_PERSON_AND_ORGANIZATION_ASSIGNMENT ( #6, #15, ( #14 ) ) ;
#171 = MECHANICAL_CONTEXT ( 'NONE', #76, 'mechanical' ) ;
#172 =( NAMED_UNIT ( * ) PLANE_ANGLE_UNIT ( ) SI_UNIT ( $, .RADIAN. ) );
#173 = AXIS2_PLACEMENT_3D ( 'NONE', #120, #138, #134 ) ;
#174 = APPROVAL_DATE_TIME ( #52, #51 ) ;
#175 = LOCAL_TIME ( 14, 53, 21.00000000000000000, #36 ) ;
ENDSEC;
END-ISO-10303-21;
