ISO-10303-21;
HEADER;
FILE_DESCRIPTION (( 'STEP AP203' ),
    '1' );
FILE_NAME ('Web Model 17170_17180.step',
    '2021-08-09T15:02:59',
    ( '' ),
    ( '' ),
    'SwSTEP 2.0',
    'SolidWorks 2018',
    '' );
FILE_SCHEMA (( 'CONFIG_CONTROL_DESIGN' ));
ENDSEC;

DATA;
#1 = CARTESIAN_POINT ( 'NONE',  ( 0.000000000000000000, 0.000000000000000000, 0.000000000000000000 ) ) ;
#2 = LOCAL_TIME ( 11, 2, 59.00000000000000000, #158 ) ;
#3 = APPROVAL_PERSON_ORGANIZATION ( #39, #78, #55 ) ;
#4 = PERSON_AND_ORGANIZATION ( #33, #91 ) ;
#5 = DIRECTION ( 'NONE',  ( 1.000000000000000000, 0.000000000000000000, -0.000000000000000000 ) ) ;
#6 = CALENDAR_DATE ( 2021, 9, 8 ) ;
#7 = LOCAL_TIME ( 11, 2, 59.00000000000000000, #12 ) ;
#8 = EDGE_LOOP ( 'NONE', ( #72, #34 ) ) ;
#9 = APPROVAL_STATUS ( 'not_yet_approved' ) ;
#10 = PLANE ( 'NONE',  #57 ) ;
#11 = DATE_AND_TIME ( #50, #65 ) ;
#12 = COORDINATED_UNIVERSAL_TIME_OFFSET ( 5, 0, .BEHIND. ) ;
#13 = CARTESIAN_POINT ( 'NONE',  ( 0.000000000000000000, 0.000000000000000000, 0.000000000000000000 ) ) ;
#14 = DIRECTION ( 'NONE',  ( -1.000000000000000000, 0.000000000000000000, 0.000000000000000000 ) ) ;
#15 = CYLINDRICAL_SURFACE ( 'NONE', #176, 2.460629921259842590 ) ;
#16 = VECTOR ( 'NONE', #133, 39.37007874015748143 ) ;
#17 = PERSON_AND_ORGANIZATION ( #33, #91 ) ;
#18 = DESIGN_CONTEXT ( 'detailed design', #41, 'design' ) ;
#19 = ADVANCED_FACE ( 'NONE', ( #170 ), #15, .T. ) ;
#20 = AXIS2_PLACEMENT_3D ( 'NONE', #167, #121, #131 ) ;
#21 = FACE_OUTER_BOUND ( 'NONE', #130, .T. ) ;
#22 = SECURITY_CLASSIFICATION_LEVEL ( 'unclassified' ) ;
#23 = ORIENTED_EDGE ( 'NONE', *, *, #109, .F. ) ;
#24 = DIRECTION ( 'NONE',  ( 1.000000000000000000, 0.000000000000000000, 0.000000000000000000 ) ) ;
#25 = CARTESIAN_POINT ( 'NONE',  ( 0.000000000000000000, 0.000000000000000000, 0.000000000000000000 ) ) ;
#26 = CARTESIAN_POINT ( 'NONE',  ( 0.000000000000000000, 0.000000000000000000, 0.1574803149606299191 ) ) ;
#27 =( GEOMETRIC_REPRESENTATION_CONTEXT ( 3 ) GLOBAL_UNCERTAINTY_ASSIGNED_CONTEXT ( ( #152 ) ) GLOBAL_UNIT_ASSIGNED_CONTEXT ( ( #94, #42, #174 ) ) REPRESENTATION_CONTEXT ( 'NONE', 'WORKASPACE' ) );
#28 = FACE_OUTER_BOUND ( 'NONE', #8, .T. ) ;
#29 = DATE_AND_TIME ( #74, #104 ) ;
#30 = ADVANCED_BREP_SHAPE_REPRESENTATION ( 'Web Model 17170_17180', ( #67, #98 ), #27 ) ;
#31 = ORIENTED_EDGE ( 'NONE', *, *, #52, .T. ) ;
#32 = DIRECTION ( 'NONE',  ( -0.000000000000000000, -0.000000000000000000, -1.000000000000000000 ) ) ;
#33 = PERSON ( 'UNSPECIFIED', 'UNSPECIFIED', 'UNSPECIFIED', ('UNSPECIFIED'), ('UNSPECIFIED'), ('UNSPECIFIED') ) ;
#34 = ORIENTED_EDGE ( 'NONE', *, *, #52, .F. ) ;
#35 = APPROVAL_DATE_TIME ( #29, #78 ) ;
#36 = PERSON_AND_ORGANIZATION ( #33, #91 ) ;
#37 = CYLINDRICAL_SURFACE ( 'NONE', #20, 2.460629921259842590 ) ;
#38 = ADVANCED_FACE ( 'NONE', ( #28 ), #10, .F. ) ;
#39 = PERSON_AND_ORGANIZATION ( #33, #91 ) ;
#40 = ORIENTED_EDGE ( 'NONE', *, *, #159, .T. ) ;
#41 = APPLICATION_CONTEXT ( 'configuration controlled 3d designs of mechanical parts and assemblies' ) ;
#42 =( NAMED_UNIT ( * ) PLANE_ANGLE_UNIT ( ) SI_UNIT ( $, .RADIAN. ) );
#43 = DIRECTION ( 'NONE',  ( 1.000000000000000000, 0.000000000000000000, 0.000000000000000000 ) ) ;
#44 = CARTESIAN_POINT ( 'NONE',  ( 2.460629921259842590, 3.013402556957070180E-16, 0.1574803149606299191 ) ) ;
#45 = CARTESIAN_POINT ( 'NONE',  ( 0.000000000000000000, 0.000000000000000000, 0.1574803149606299191 ) ) ;
#46 = DIRECTION ( 'NONE',  ( 0.000000000000000000, 0.000000000000000000, 1.000000000000000000 ) ) ;
#47 = CALENDAR_DATE ( 2021, 9, 8 ) ;
#48 = EDGE_CURVE ( 'NONE', #153, #169, #88, .T. ) ;
#49 = ORIENTED_EDGE ( 'NONE', *, *, #119, .T. ) ;
#50 = CALENDAR_DATE ( 2021, 9, 8 ) ;
#51 = ADVANCED_FACE ( 'NONE', ( #99 ), #37, .T. ) ;
#52 = EDGE_CURVE ( 'NONE', #117, #134, #75, .T. ) ;
#53 = CC_DESIGN_PERSON_AND_ORGANIZATION_ASSIGNMENT ( #36, #64, ( #144 ) ) ;
#54 = APPROVAL_STATUS ( 'not_yet_approved' ) ;
#55 = APPROVAL_ROLE ( '' ) ;
#56 = DATE_TIME_ROLE ( 'classification_date' ) ;
#57 = AXIS2_PLACEMENT_3D ( 'NONE', #1, #108, #106 ) ;
#58 = DIRECTION ( 'NONE',  ( 1.000000000000000000, 0.000000000000000000, 0.000000000000000000 ) ) ;
#59 = CARTESIAN_POINT ( 'NONE',  ( -2.460629921259842590, 0.000000000000000000, 0.1574803149606299191 ) ) ;
#60 = DIRECTION ( 'NONE',  ( 0.000000000000000000, 0.000000000000000000, 1.000000000000000000 ) ) ;
#61 = EDGE_LOOP ( 'NONE', ( #113, #40, #31, #23 ) ) ;
#62 = ORIENTED_EDGE ( 'NONE', *, *, #109, .T. ) ;
#63 = PERSON_AND_ORGANIZATION ( #33, #91 ) ;
#64 = PERSON_AND_ORGANIZATION_ROLE ( 'design_supplier' ) ;
#65 = LOCAL_TIME ( 11, 2, 59.00000000000000000, #143 ) ;
#66 =( LENGTH_UNIT ( ) NAMED_UNIT ( * ) SI_UNIT ( $, .METRE. ) );
#67 = MANIFOLD_SOLID_BREP ( 'Boss-Extrude1', #175 ) ;
#68 = APPLICATION_PROTOCOL_DEFINITION ( 'international standard', 'config_control_design', 1994, #41 ) ;
#69 = DIRECTION ( 'NONE',  ( 0.000000000000000000, 0.000000000000000000, 1.000000000000000000 ) ) ;
#70 = CALENDAR_DATE ( 2021, 9, 8 ) ;
#71 = DIRECTION ( 'NONE',  ( -0.000000000000000000, -0.000000000000000000, -1.000000000000000000 ) ) ;
#72 = ORIENTED_EDGE ( 'NONE', *, *, #119, .F. ) ;
#73 = CC_DESIGN_DATE_AND_TIME_ASSIGNMENT ( #79, #103, ( #112 ) ) ;
#74 = CALENDAR_DATE ( 2021, 9, 8 ) ;
#75 = CIRCLE ( 'NONE', #76, 2.460629921259842590 ) ;
#76 = AXIS2_PLACEMENT_3D ( 'NONE', #25, #124, #58 ) ;
#77 = DIRECTION ( 'NONE',  ( 1.000000000000000000, 0.000000000000000000, 0.000000000000000000 ) ) ;
#78 = APPROVAL ( #85, 'UNSPECIFIED' ) ;
#79 = DATE_AND_TIME ( #70, #7 ) ;
#80 = DATE_AND_TIME ( #6, #100 ) ;
#81 = ORIENTED_EDGE ( 'NONE', *, *, #136, .T. ) ;
#82 = APPROVAL_ROLE ( '' ) ;
#83 = CC_DESIGN_APPROVAL ( #123, ( #144 ) ) ;
#84 = PERSON_AND_ORGANIZATION_ROLE ( 'design_owner' ) ;
#85 = APPROVAL_STATUS ( 'not_yet_approved' ) ;
#86 = CARTESIAN_POINT ( 'NONE',  ( -2.460629921259842590, 0.000000000000000000, 0.1574803149606299191 ) ) ;
#87 = PRODUCT_DEFINITION_SHAPE ( 'NONE', 'NONE',  #112 ) ;
#88 = CIRCLE ( 'NONE', #93, 2.460629921259842590 ) ;
#89 = LENGTH_MEASURE_WITH_UNIT ( LENGTH_MEASURE( 0.02539999999999999897 ), #66 );
#90 = APPROVAL_PERSON_ORGANIZATION ( #17, #165, #147 ) ;
#91 = ORGANIZATION ( 'UNSPECIFIED', 'UNSPECIFIED', '' ) ;
#92 = APPROVAL_DATE_TIME ( #125, #123 ) ;
#93 = AXIS2_PLACEMENT_3D ( 'NONE', #151, #69, #24 ) ;
#94 =( CONVERSION_BASED_UNIT ( 'INCH', #89 ) LENGTH_UNIT ( ) NAMED_UNIT ( #162 ) );
#95 = APPLICATION_CONTEXT ( 'configuration controlled 3d designs of mechanical parts and assemblies' ) ;
#96 = CC_DESIGN_SECURITY_CLASSIFICATION ( #156, ( #144 ) ) ;
#97 = ORIENTED_EDGE ( 'NONE', *, *, #159, .F. ) ;
#98 = AXIS2_PLACEMENT_3D ( 'NONE', #129, #120, #122 ) ;
#99 = FACE_OUTER_BOUND ( 'NONE', #145, .T. ) ;
#100 = LOCAL_TIME ( 11, 2, 59.00000000000000000, #137 ) ;
#101 = ORIENTED_EDGE ( 'NONE', *, *, #136, .F. ) ;
#102 = AXIS2_PLACEMENT_3D ( 'NONE', #168, #141, #77 ) ;
#103 = DATE_TIME_ROLE ( 'creation_date' ) ;
#104 = LOCAL_TIME ( 11, 2, 59.00000000000000000, #140 ) ;
#105 = PERSON_AND_ORGANIZATION_ROLE ( 'creator' ) ;
#106 = DIRECTION ( 'NONE',  ( 1.000000000000000000, 0.000000000000000000, -0.000000000000000000 ) ) ;
#107 = LINE ( 'NONE', #111, #177 ) ;
#108 = DIRECTION ( 'NONE',  ( 0.000000000000000000, 0.000000000000000000, 1.000000000000000000 ) ) ;
#109 = EDGE_CURVE ( 'NONE', #169, #134, #154, .T. ) ;
#110 = CC_DESIGN_APPROVAL ( #165, ( #112 ) ) ;
#111 = CARTESIAN_POINT ( 'NONE',  ( 2.460629921259842590, 3.013402556957070180E-16, 0.1574803149606299191 ) ) ;
#112 = PRODUCT_DEFINITION ( 'UNKNOWN', '', #144, #18 ) ;
#113 = ORIENTED_EDGE ( 'NONE', *, *, #48, .F. ) ;
#114 = PERSON_AND_ORGANIZATION ( #33, #91 ) ;
#115 = AXIS2_PLACEMENT_3D ( 'NONE', #13, #60, #43 ) ;
#116 = CC_DESIGN_PERSON_AND_ORGANIZATION_ASSIGNMENT ( #114, #105, ( #112 ) ) ;
#117 = VERTEX_POINT ( 'NONE', #178 ) ;
#118 = PERSON_AND_ORGANIZATION_ROLE ( 'classification_officer' ) ;
#119 = EDGE_CURVE ( 'NONE', #134, #117, #146, .T. ) ;
#120 = DIRECTION ( 'NONE',  ( 0.000000000000000000, 0.000000000000000000, 1.000000000000000000 ) ) ;
#121 = DIRECTION ( 'NONE',  ( -0.000000000000000000, -0.000000000000000000, -1.000000000000000000 ) ) ;
#122 = DIRECTION ( 'NONE',  ( 1.000000000000000000, 0.000000000000000000, 0.000000000000000000 ) ) ;
#123 = APPROVAL ( #9, 'UNSPECIFIED' ) ;
#124 = DIRECTION ( 'NONE',  ( 0.000000000000000000, 0.000000000000000000, 1.000000000000000000 ) ) ;
#125 = DATE_AND_TIME ( #47, #2 ) ;
#126 = APPROVAL_PERSON_ORGANIZATION ( #63, #123, #82 ) ;
#127 = PRODUCT ( 'Web Model 17170_17180', 'Web Model 17170_17180', '', ( #132 ) ) ;
#128 = PLANE ( 'NONE',  #138 ) ;
#129 = CARTESIAN_POINT ( 'NONE',  ( 0.000000000000000000, 0.000000000000000000, 0.000000000000000000 ) ) ;
#130 = EDGE_LOOP ( 'NONE', ( #81, #142 ) ) ;
#131 = DIRECTION ( 'NONE',  ( -1.000000000000000000, 0.000000000000000000, 0.000000000000000000 ) ) ;
#132 = MECHANICAL_CONTEXT ( 'NONE', #95, 'mechanical' ) ;
#133 = DIRECTION ( 'NONE',  ( -0.000000000000000000, -0.000000000000000000, -1.000000000000000000 ) ) ;
#134 = VERTEX_POINT ( 'NONE', #148 ) ;
#135 = SHAPE_DEFINITION_REPRESENTATION ( #87, #30 ) ;
#136 = EDGE_CURVE ( 'NONE', #169, #153, #157, .T. ) ;
#137 = COORDINATED_UNIVERSAL_TIME_OFFSET ( 5, 0, .BEHIND. ) ;
#138 = AXIS2_PLACEMENT_3D ( 'NONE', #45, #46, #5 ) ;
#139 = PERSON_AND_ORGANIZATION ( #33, #91 ) ;
#140 = COORDINATED_UNIVERSAL_TIME_OFFSET ( 5, 0, .BEHIND. ) ;
#141 = DIRECTION ( 'NONE',  ( 0.000000000000000000, 0.000000000000000000, 1.000000000000000000 ) ) ;
#142 = ORIENTED_EDGE ( 'NONE', *, *, #48, .T. ) ;
#143 = COORDINATED_UNIVERSAL_TIME_OFFSET ( 5, 0, .BEHIND. ) ;
#144 = PRODUCT_DEFINITION_FORMATION_WITH_SPECIFIED_SOURCE ( 'ANY', '', #127, .NOT_KNOWN. ) ;
#145 = EDGE_LOOP ( 'NONE', ( #97, #101, #62, #49 ) ) ;
#146 = CIRCLE ( 'NONE', #115, 2.460629921259842590 ) ;
#147 = APPROVAL_ROLE ( '' ) ;
#148 = CARTESIAN_POINT ( 'NONE',  ( -2.460629921259842590, 0.000000000000000000, 0.000000000000000000 ) ) ;
#149 = CC_DESIGN_PERSON_AND_ORGANIZATION_ASSIGNMENT ( #139, #166, ( #144 ) ) ;
#150 = CC_DESIGN_APPROVAL ( #78, ( #156 ) ) ;
#151 = CARTESIAN_POINT ( 'NONE',  ( 0.000000000000000000, 0.000000000000000000, 0.1574803149606299191 ) ) ;
#152 = UNCERTAINTY_MEASURE_WITH_UNIT (LENGTH_MEASURE( 1.000000000000000082E-05 ), #94, 'distance_accuracy_value', 'NONE');
#153 = VERTEX_POINT ( 'NONE', #44 ) ;
#154 = LINE ( 'NONE', #59, #16 ) ;
#155 = APPROVAL_DATE_TIME ( #11, #165 ) ;
#156 = SECURITY_CLASSIFICATION ( '', '', #22 ) ;
#157 = CIRCLE ( 'NONE', #102, 2.460629921259842590 ) ;
#158 = COORDINATED_UNIVERSAL_TIME_OFFSET ( 5, 0, .BEHIND. ) ;
#159 = EDGE_CURVE ( 'NONE', #153, #117, #107, .T. ) ;
#160 = ADVANCED_FACE ( 'NONE', ( #21 ), #128, .T. ) ;
#161 = CC_DESIGN_PERSON_AND_ORGANIZATION_ASSIGNMENT ( #173, #118, ( #156 ) ) ;
#162 = DIMENSIONAL_EXPONENTS ( 1.000000000000000000, 0.000000000000000000, 0.000000000000000000, 0.000000000000000000, 0.000000000000000000, 0.000000000000000000, 0.000000000000000000 ) ;
#163 = CC_DESIGN_PERSON_AND_ORGANIZATION_ASSIGNMENT ( #4, #84, ( #127 ) ) ;
#164 = APPLICATION_PROTOCOL_DEFINITION ( 'international standard', 'config_control_design', 1994, #95 ) ;
#165 = APPROVAL ( #54, 'UNSPECIFIED' ) ;
#166 = PERSON_AND_ORGANIZATION_ROLE ( 'creator' ) ;
#167 = CARTESIAN_POINT ( 'NONE',  ( 0.000000000000000000, 0.000000000000000000, 0.1574803149606299191 ) ) ;
#168 = CARTESIAN_POINT ( 'NONE',  ( 0.000000000000000000, 0.000000000000000000, 0.1574803149606299191 ) ) ;
#169 = VERTEX_POINT ( 'NONE', #86 ) ;
#170 = FACE_OUTER_BOUND ( 'NONE', #61, .T. ) ;
#171 = CC_DESIGN_DATE_AND_TIME_ASSIGNMENT ( #80, #56, ( #156 ) ) ;
#172 = PRODUCT_RELATED_PRODUCT_CATEGORY ( 'detail', '', ( #127 ) ) ;
#173 = PERSON_AND_ORGANIZATION ( #33, #91 ) ;
#174 =( NAMED_UNIT ( * ) SI_UNIT ( $, .STERADIAN. ) SOLID_ANGLE_UNIT ( ) );
#175 = CLOSED_SHELL ( 'NONE', ( #19, #51, #160, #38 ) ) ;
#176 = AXIS2_PLACEMENT_3D ( 'NONE', #26, #71, #14 ) ;
#177 = VECTOR ( 'NONE', #32, 39.37007874015748143 ) ;
#178 = CARTESIAN_POINT ( 'NONE',  ( 2.460629921259842590, 3.013402556957070180E-16, 0.000000000000000000 ) ) ;
ENDSEC;
END-ISO-10303-21;
