ISO-10303-21;
HEADER;
FILE_DESCRIPTION (( 'STEP AP203' ),
    '1' );
FILE_NAME ('Web Model 49575_49575.step',
    '2019-04-23T14:08:00',
    ( '' ),
    ( '' ),
    'SwSTEP 2.0',
    'SolidWorks 2018',
    '' );
FILE_SCHEMA (( 'CONFIG_CONTROL_DESIGN' ));
ENDSEC;

DATA;
#1 = CARTESIAN_POINT ( 'NONE',  ( 6.349999999999999645, 6.349999999999999645, 3.000000000000000000 ) ) ;
#2 = DATE_AND_TIME ( #109, #24 ) ;
#3 = PRODUCT_DEFINITION ( 'UNKNOWN', '', #108, #104 ) ;
#4 = PERSON_AND_ORGANIZATION_ROLE ( 'creator' ) ;
#5 = APPROVAL_STATUS ( 'not_yet_approved' ) ;
#6 = EDGE_CURVE ( 'NONE', #213, #68, #130, .T. ) ;
#7 = PERSON_AND_ORGANIZATION_ROLE ( 'design_supplier' ) ;
#8 = COORDINATED_UNIVERSAL_TIME_OFFSET ( 5, 0, .BEHIND. ) ;
#9 = EDGE_LOOP ( 'NONE', ( #19, #172, #206, #195 ) ) ;
#10 = SECURITY_CLASSIFICATION_LEVEL ( 'unclassified' ) ;
#11 = PERSON_AND_ORGANIZATION_ROLE ( 'design_owner' ) ;
#12 = LINE ( 'NONE', #72, #91 ) ;
#13 = LINE ( 'NONE', #58, #233 ) ;
#14 = ORIENTED_EDGE ( 'NONE', *, *, #33, .T. ) ;
#15 = ADVANCED_FACE ( 'NONE', ( #236 ), #147, .F. ) ;
#16 = ORIENTED_EDGE ( 'NONE', *, *, #18, .T. ) ;
#17 = APPROVAL ( #5, 'UNSPECIFIED' ) ;
#18 = EDGE_CURVE ( 'NONE', #103, #68, #80, .T. ) ;
#19 = ORIENTED_EDGE ( 'NONE', *, *, #29, .T. ) ;
#20 = DIRECTION ( 'NONE',  ( 0.0000000000000000000, 0.0000000000000000000, -1.000000000000000000 ) ) ;
#21 = DIRECTION ( 'NONE',  ( 0.0000000000000000000, 0.0000000000000000000, -1.000000000000000000 ) ) ;
#22 = VECTOR ( 'NONE', #131, 1000.000000000000000 ) ;
#23 = CARTESIAN_POINT ( 'NONE',  ( -6.349999999999999645, 6.349999999999999645, 3.000000000000000000 ) ) ;
#24 = LOCAL_TIME ( 10, 8, 0.0000000000000000000, #123 ) ;
#25 = VERTEX_POINT ( 'NONE', #1 ) ;
#26 = CC_DESIGN_PERSON_AND_ORGANIZATION_ASSIGNMENT ( #139, #7, ( #108 ) ) ;
#27 = CARTESIAN_POINT ( 'NONE',  ( 0.0000000000000000000, 0.0000000000000000000, 3.000000000000000000 ) ) ;
#28 =( LENGTH_UNIT ( ) NAMED_UNIT ( * ) SI_UNIT ( .MILLI., .METRE. ) );
#29 = EDGE_CURVE ( 'NONE', #68, #208, #12, .T. ) ;
#30 = DIRECTION ( 'NONE',  ( 0.0000000000000000000, 0.0000000000000000000, -1.000000000000000000 ) ) ;
#31 = EDGE_LOOP ( 'NONE', ( #55, #184, #158, #124 ) ) ;
#32 = FACE_OUTER_BOUND ( 'NONE', #31, .T. ) ;
#33 = EDGE_CURVE ( 'NONE', #84, #103, #174, .T. ) ;
#34 = APPROVAL ( #170, 'UNSPECIFIED' ) ;
#35 = LOCAL_TIME ( 10, 8, 0.0000000000000000000, #83 ) ;
#36 = APPROVAL_DATE_TIME ( #2, #34 ) ;
#37 = AXIS2_PLACEMENT_3D ( 'NONE', #165, #106, #54 ) ;
#38 = DIRECTION ( 'NONE',  ( 0.0000000000000000000, -1.000000000000000000, 0.0000000000000000000 ) ) ;
#39 = VECTOR ( 'NONE', #185, 1000.000000000000000 ) ;
#40 = ORIENTED_EDGE ( 'NONE', *, *, #186, .F. ) ;
#41 = PLANE ( 'NONE',  #210 ) ;
#42 = CARTESIAN_POINT ( 'NONE',  ( -6.349999999999999645, 6.349999999999999645, 0.0000000000000000000 ) ) ;
#43 = CARTESIAN_POINT ( 'NONE',  ( -6.349999999999999645, 6.349999999999999645, 0.0000000000000000000 ) ) ;
#44 = DIRECTION ( 'NONE',  ( 0.0000000000000000000, 1.000000000000000000, 0.0000000000000000000 ) ) ;
#45 = LOCAL_TIME ( 10, 8, 0.0000000000000000000, #90 ) ;
#46 = CC_DESIGN_PERSON_AND_ORGANIZATION_ASSIGNMENT ( #226, #224, ( #66 ) ) ;
#47 = APPLICATION_CONTEXT ( 'configuration controlled 3d designs of mechanical parts and assemblies' ) ;
#48 = PLANE ( 'NONE',  #121 ) ;
#49 = UNCERTAINTY_MEASURE_WITH_UNIT (LENGTH_MEASURE( 1.000000000000000082E-05 ), #28, 'distance_accuracy_value', 'NONE');
#50 = CALENDAR_DATE ( 2019, 23, 4 ) ;
#51 = AXIS2_PLACEMENT_3D ( 'NONE', #152, #168, #187 ) ;
#52 = LOCAL_TIME ( 10, 8, 0.0000000000000000000, #100 ) ;
#53 = CC_DESIGN_PERSON_AND_ORGANIZATION_ASSIGNMENT ( #98, #115, ( #3 ) ) ;
#54 = DIRECTION ( 'NONE',  ( 1.000000000000000000, 0.0000000000000000000, 0.0000000000000000000 ) ) ;
#55 = ORIENTED_EDGE ( 'NONE', *, *, #65, .T. ) ;
#56 = CARTESIAN_POINT ( 'NONE',  ( -6.349999999999999645, -6.349999999999999645, 0.0000000000000000000 ) ) ;
#57 = ORIENTED_EDGE ( 'NONE', *, *, #18, .F. ) ;
#58 = CARTESIAN_POINT ( 'NONE',  ( -6.349999999999999645, 6.349999999999999645, 3.000000000000000000 ) ) ;
#59 = DATE_TIME_ROLE ( 'creation_date' ) ;
#60 = ADVANCED_FACE ( 'NONE', ( #223 ), #237, .F. ) ;
#61 = PERSON ( 'UNSPECIFIED', 'UNSPECIFIED', 'UNSPECIFIED', ('UNSPECIFIED'), ('UNSPECIFIED'), ('UNSPECIFIED') ) ;
#62 = LOCAL_TIME ( 10, 8, 0.0000000000000000000, #8 ) ;
#63 = CC_DESIGN_SECURITY_CLASSIFICATION ( #66, ( #108 ) ) ;
#64 = ORIENTED_EDGE ( 'NONE', *, *, #122, .F. ) ;
#65 = EDGE_CURVE ( 'NONE', #213, #25, #217, .T. ) ;
#66 = SECURITY_CLASSIFICATION ( '', '', #10 ) ;
#67 = APPROVAL_DATE_TIME ( #207, #159 ) ;
#68 = VERTEX_POINT ( 'NONE', #113 ) ;
#69 = CC_DESIGN_PERSON_AND_ORGANIZATION_ASSIGNMENT ( #144, #4, ( #108 ) ) ;
#70 = ADVANCED_FACE ( 'NONE', ( #112 ), #41, .F. ) ;
#71 = EDGE_LOOP ( 'NONE', ( #73, #57, #150, #199 ) ) ;
#72 = CARTESIAN_POINT ( 'NONE',  ( 6.349999999999999645, -6.349999999999999645, 0.0000000000000000000 ) ) ;
#73 = ORIENTED_EDGE ( 'NONE', *, *, #29, .F. ) ;
#74 = CC_DESIGN_PERSON_AND_ORGANIZATION_ASSIGNMENT ( #212, #11, ( #85 ) ) ;
#75 = DIRECTION ( 'NONE',  ( 1.000000000000000000, 0.0000000000000000000, 0.0000000000000000000 ) ) ;
#76 = EDGE_CURVE ( 'NONE', #208, #84, #222, .T. ) ;
#77 = PLANE ( 'NONE',  #51 ) ;
#78 = DATE_AND_TIME ( #50, #52 ) ;
#79 = APPROVAL_ROLE ( '' ) ;
#80 = LINE ( 'NONE', #181, #145 ) ;
#81 = MANIFOLD_SOLID_BREP ( 'NONE', #167 ) ;
#82 = MECHANICAL_CONTEXT ( 'NONE', #47, 'mechanical' ) ;
#83 = COORDINATED_UNIVERSAL_TIME_OFFSET ( 5, 0, .BEHIND. ) ;
#84 = VERTEX_POINT ( 'NONE', #43 ) ;
#85 = PRODUCT ( 'Web Model 49575_49575', 'Web Model 49575_49575', '', ( #82 ) ) ;
#86 = PERSON_AND_ORGANIZATION ( #61, #171 ) ;
#87 = PRODUCT_RELATED_PRODUCT_CATEGORY ( 'detail', '', ( #85 ) ) ;
#88 = LINE ( 'NONE', #110, #125 ) ;
#89 = ORIENTED_EDGE ( 'NONE', *, *, #142, .F. ) ;
#90 = COORDINATED_UNIVERSAL_TIME_OFFSET ( 5, 0, .BEHIND. ) ;
#91 = VECTOR ( 'NONE', #93, 1000.000000000000000 ) ;
#92 = CC_DESIGN_DATE_AND_TIME_ASSIGNMENT ( #154, #141, ( #66 ) ) ;
#93 = DIRECTION ( 'NONE',  ( 0.0000000000000000000, 1.000000000000000000, 0.0000000000000000000 ) ) ;
#94 = ADVANCED_BREP_SHAPE_REPRESENTATION ( 'Web Model 49575_49575', ( #81, #95 ), #205 ) ;
#95 = AXIS2_PLACEMENT_3D ( 'NONE', #196, #221, #99 ) ;
#96 = CARTESIAN_POINT ( 'NONE',  ( 6.349999999999999645, -6.349999999999999645, 3.000000000000000000 ) ) ;
#97 = CALENDAR_DATE ( 2019, 23, 4 ) ;
#98 = PERSON_AND_ORGANIZATION ( #61, #171 ) ;
#99 = DIRECTION ( 'NONE',  ( 1.000000000000000000, 0.0000000000000000000, 0.0000000000000000000 ) ) ;
#100 = COORDINATED_UNIVERSAL_TIME_OFFSET ( 5, 0, .BEHIND. ) ;
#101 = EDGE_LOOP ( 'NONE', ( #16, #164, #204, #209 ) ) ;
#102 = APPROVAL_PERSON_ORGANIZATION ( #143, #159, #137 ) ;
#103 = VERTEX_POINT ( 'NONE', #56 ) ;
#104 = DESIGN_CONTEXT ( 'detailed design', #189, 'design' ) ;
#105 = ADVANCED_FACE ( 'NONE', ( #146 ), #77, .F. ) ;
#106 = DIRECTION ( 'NONE',  ( -0.0000000000000000000, 1.000000000000000000, 0.0000000000000000000 ) ) ;
#107 = ORIENTED_EDGE ( 'NONE', *, *, #162, .F. ) ;
#108 = PRODUCT_DEFINITION_FORMATION_WITH_SPECIFIED_SOURCE ( 'ANY', '', #85, .NOT_KNOWN. ) ;
#109 = CALENDAR_DATE ( 2019, 23, 4 ) ;
#110 = CARTESIAN_POINT ( 'NONE',  ( -6.349999999999999645, -6.349999999999999645, 3.000000000000000000 ) ) ;
#111 = CARTESIAN_POINT ( 'NONE',  ( -6.349999999999999645, -6.349999999999999645, 3.000000000000000000 ) ) ;
#112 = FACE_OUTER_BOUND ( 'NONE', #120, .T. ) ;
#113 = CARTESIAN_POINT ( 'NONE',  ( 6.349999999999999645, -6.349999999999999645, 0.0000000000000000000 ) ) ;
#114 = APPLICATION_PROTOCOL_DEFINITION ( 'international standard', 'config_control_design', 1994, #189 ) ;
#115 = PERSON_AND_ORGANIZATION_ROLE ( 'creator' ) ;
#116 = VECTOR ( 'NONE', #225, 1000.000000000000000 ) ;
#117 = DIRECTION ( 'NONE',  ( 0.0000000000000000000, -1.000000000000000000, 0.0000000000000000000 ) ) ;
#118 = APPROVAL_ROLE ( '' ) ;
#119 = APPLICATION_PROTOCOL_DEFINITION ( 'international standard', 'config_control_design', 1994, #47 ) ;
#120 = EDGE_LOOP ( 'NONE', ( #14, #40, #107, #157 ) ) ;
#121 = AXIS2_PLACEMENT_3D ( 'NONE', #27, #138, #117 ) ;
#122 = EDGE_CURVE ( 'NONE', #201, #84, #163, .T. ) ;
#123 = COORDINATED_UNIVERSAL_TIME_OFFSET ( 5, 0, .BEHIND. ) ;
#124 = ORIENTED_EDGE ( 'NONE', *, *, #175, .T. ) ;
#125 = VECTOR ( 'NONE', #38, 1000.000000000000000 ) ;
#126 = AXIS2_PLACEMENT_3D ( 'NONE', #220, #218, #153 ) ;
#127 = CARTESIAN_POINT ( 'NONE',  ( -6.349999999999999645, -6.349999999999999645, 0.0000000000000000000 ) ) ;
#128 = DIRECTION ( 'NONE',  ( 0.0000000000000000000, -1.000000000000000000, 0.0000000000000000000 ) ) ;
#129 = PERSON_AND_ORGANIZATION ( #61, #171 ) ;
#130 = LINE ( 'NONE', #180, #227 ) ;
#131 = DIRECTION ( 'NONE',  ( 0.0000000000000000000, 1.000000000000000000, 0.0000000000000000000 ) ) ;
#132 = DIRECTION ( 'NONE',  ( -1.000000000000000000, 0.0000000000000000000, 0.0000000000000000000 ) ) ;
#133 = CC_DESIGN_APPROVAL ( #159, ( #66 ) ) ;
#134 = PLANE ( 'NONE',  #200 ) ;
#135 = LINE ( 'NONE', #215, #39 ) ;
#136 = APPROVAL_STATUS ( 'not_yet_approved' ) ;
#137 = APPROVAL_ROLE ( '' ) ;
#138 = DIRECTION ( 'NONE',  ( 0.0000000000000000000, 0.0000000000000000000, -1.000000000000000000 ) ) ;
#139 = PERSON_AND_ORGANIZATION ( #61, #171 ) ;
#140 = ORIENTED_EDGE ( 'NONE', *, *, #232, .T. ) ;
#141 = DATE_TIME_ROLE ( 'classification_date' ) ;
#142 = EDGE_CURVE ( 'NONE', #25, #201, #13, .T. ) ;
#143 = PERSON_AND_ORGANIZATION ( #61, #171 ) ;
#144 = PERSON_AND_ORGANIZATION ( #61, #171 ) ;
#145 = VECTOR ( 'NONE', #148, 1000.000000000000000 ) ;
#146 = FACE_OUTER_BOUND ( 'NONE', #9, .T. ) ;
#147 = PLANE ( 'NONE',  #37 ) ;
#148 = DIRECTION ( 'NONE',  ( 1.000000000000000000, 0.0000000000000000000, 0.0000000000000000000 ) ) ;
#149 = APPROVAL_PERSON_ORGANIZATION ( #129, #17, #118 ) ;
#150 = ORIENTED_EDGE ( 'NONE', *, *, #33, .F. ) ;
#151 = DIRECTION ( 'NONE',  ( 0.0000000000000000000, -1.000000000000000000, 0.0000000000000000000 ) ) ;
#152 = CARTESIAN_POINT ( 'NONE',  ( 6.349999999999999645, -6.349999999999999645, 3.000000000000000000 ) ) ;
#153 = DIRECTION ( 'NONE',  ( 0.0000000000000000000, 0.0000000000000000000, -1.000000000000000000 ) ) ;
#154 = DATE_AND_TIME ( #216, #35 ) ;
#155 = CARTESIAN_POINT ( 'NONE',  ( 0.0000000000000000000, 0.0000000000000000000, 0.0000000000000000000 ) ) ;
#156 = LINE ( 'NONE', #234, #203 ) ;
#157 = ORIENTED_EDGE ( 'NONE', *, *, #122, .T. ) ;
#158 = ORIENTED_EDGE ( 'NONE', *, *, #162, .T. ) ;
#159 = APPROVAL ( #136, 'UNSPECIFIED' ) ;
#160 = ORIENTED_EDGE ( 'NONE', *, *, #76, .T. ) ;
#161 = ADVANCED_FACE ( 'NONE', ( #198 ), #134, .T. ) ;
#162 = EDGE_CURVE ( 'NONE', #201, #179, #88, .T. ) ;
#163 = LINE ( 'NONE', #23, #229 ) ;
#164 = ORIENTED_EDGE ( 'NONE', *, *, #6, .F. ) ;
#165 = CARTESIAN_POINT ( 'NONE',  ( -6.349999999999999645, -6.349999999999999645, 3.000000000000000000 ) ) ;
#166 = CARTESIAN_POINT ( 'NONE',  ( -6.349999999999999645, -6.349999999999999645, 3.000000000000000000 ) ) ;
#167 = CLOSED_SHELL ( 'NONE', ( #105, #60, #70, #15, #231, #161 ) ) ;
#168 = DIRECTION ( 'NONE',  ( -1.000000000000000000, 0.0000000000000000000, 0.0000000000000000000 ) ) ;
#169 = CC_DESIGN_APPROVAL ( #17, ( #108 ) ) ;
#170 = APPROVAL_STATUS ( 'not_yet_approved' ) ;
#171 = ORGANIZATION ( 'UNSPECIFIED', 'UNSPECIFIED', '' ) ;
#172 = ORIENTED_EDGE ( 'NONE', *, *, #232, .F. ) ;
#173 =( NAMED_UNIT ( * ) PLANE_ANGLE_UNIT ( ) SI_UNIT ( $, .RADIAN. ) );
#174 = LINE ( 'NONE', #127, #230 ) ;
#175 = EDGE_CURVE ( 'NONE', #179, #213, #135, .T. ) ;
#176 = CALENDAR_DATE ( 2019, 23, 4 ) ;
#177 = EDGE_LOOP ( 'NONE', ( #160, #64, #89, #140 ) ) ;
#178 = DATE_AND_TIME ( #176, #62 ) ;
#179 = VERTEX_POINT ( 'NONE', #166 ) ;
#180 = CARTESIAN_POINT ( 'NONE',  ( 6.349999999999999645, -6.349999999999999645, 3.000000000000000000 ) ) ;
#181 = CARTESIAN_POINT ( 'NONE',  ( -6.349999999999999645, -6.349999999999999645, 0.0000000000000000000 ) ) ;
#182 = CARTESIAN_POINT ( 'NONE',  ( 6.349999999999999645, -6.349999999999999645, 3.000000000000000000 ) ) ;
#183 = SHAPE_DEFINITION_REPRESENTATION ( #192, #94 ) ;
#184 = ORIENTED_EDGE ( 'NONE', *, *, #142, .T. ) ;
#185 = DIRECTION ( 'NONE',  ( 1.000000000000000000, 0.0000000000000000000, 0.0000000000000000000 ) ) ;
#186 = EDGE_CURVE ( 'NONE', #179, #103, #156, .T. ) ;
#187 = DIRECTION ( 'NONE',  ( 0.0000000000000000000, 0.0000000000000000000, 1.000000000000000000 ) ) ;
#188 = DIRECTION ( 'NONE',  ( -1.000000000000000000, 0.0000000000000000000, 0.0000000000000000000 ) ) ;
#189 = APPLICATION_CONTEXT ( 'configuration controlled 3d designs of mechanical parts and assemblies' ) ;
#190 = CC_DESIGN_APPROVAL ( #34, ( #3 ) ) ;
#191 =( NAMED_UNIT ( * ) SI_UNIT ( $, .STERADIAN. ) SOLID_ANGLE_UNIT ( ) );
#192 = PRODUCT_DEFINITION_SHAPE ( 'NONE', 'NONE',  #3 ) ;
#193 = CARTESIAN_POINT ( 'NONE',  ( -6.349999999999999645, 6.349999999999999645, 3.000000000000000000 ) ) ;
#194 = APPROVAL_DATE_TIME ( #78, #17 ) ;
#195 = ORIENTED_EDGE ( 'NONE', *, *, #6, .T. ) ;
#196 = CARTESIAN_POINT ( 'NONE',  ( 0.0000000000000000000, 0.0000000000000000000, 0.0000000000000000000 ) ) ;
#197 = LINE ( 'NONE', #202, #116 ) ;
#198 = FACE_OUTER_BOUND ( 'NONE', #71, .T. ) ;
#199 = ORIENTED_EDGE ( 'NONE', *, *, #76, .F. ) ;
#200 = AXIS2_PLACEMENT_3D ( 'NONE', #155, #20, #151 ) ;
#201 = VERTEX_POINT ( 'NONE', #193 ) ;
#202 = CARTESIAN_POINT ( 'NONE',  ( 6.349999999999999645, 6.349999999999999645, 3.000000000000000000 ) ) ;
#203 = VECTOR ( 'NONE', #30, 1000.000000000000000 ) ;
#204 = ORIENTED_EDGE ( 'NONE', *, *, #175, .F. ) ;
#205 =( GEOMETRIC_REPRESENTATION_CONTEXT ( 3 ) GLOBAL_UNCERTAINTY_ASSIGNED_CONTEXT ( ( #49 ) ) GLOBAL_UNIT_ASSIGNED_CONTEXT ( ( #28, #173, #191 ) ) REPRESENTATION_CONTEXT ( 'NONE', 'WORKASPACE' ) );
#206 = ORIENTED_EDGE ( 'NONE', *, *, #65, .F. ) ;
#207 = DATE_AND_TIME ( #97, #45 ) ;
#208 = VERTEX_POINT ( 'NONE', #219 ) ;
#209 = ORIENTED_EDGE ( 'NONE', *, *, #186, .T. ) ;
#210 = AXIS2_PLACEMENT_3D ( 'NONE', #111, #75, #44 ) ;
#211 = DIRECTION ( 'NONE',  ( 0.0000000000000000000, 0.0000000000000000000, -1.000000000000000000 ) ) ;
#212 = PERSON_AND_ORGANIZATION ( #61, #171 ) ;
#213 = VERTEX_POINT ( 'NONE', #182 ) ;
#214 = CC_DESIGN_DATE_AND_TIME_ASSIGNMENT ( #178, #59, ( #3 ) ) ;
#215 = CARTESIAN_POINT ( 'NONE',  ( -6.349999999999999645, -6.349999999999999645, 3.000000000000000000 ) ) ;
#216 = CALENDAR_DATE ( 2019, 23, 4 ) ;
#217 = LINE ( 'NONE', #96, #22 ) ;
#218 = DIRECTION ( 'NONE',  ( 0.0000000000000000000, -1.000000000000000000, 0.0000000000000000000 ) ) ;
#219 = CARTESIAN_POINT ( 'NONE',  ( 6.349999999999999645, 6.349999999999999645, 0.0000000000000000000 ) ) ;
#220 = CARTESIAN_POINT ( 'NONE',  ( -6.349999999999999645, 6.349999999999999645, 3.000000000000000000 ) ) ;
#221 = DIRECTION ( 'NONE',  ( 0.0000000000000000000, 0.0000000000000000000, 1.000000000000000000 ) ) ;
#222 = LINE ( 'NONE', #42, #228 ) ;
#223 = FACE_OUTER_BOUND ( 'NONE', #177, .T. ) ;
#224 = PERSON_AND_ORGANIZATION_ROLE ( 'classification_officer' ) ;
#225 = DIRECTION ( 'NONE',  ( 0.0000000000000000000, 0.0000000000000000000, -1.000000000000000000 ) ) ;
#226 = PERSON_AND_ORGANIZATION ( #61, #171 ) ;
#227 = VECTOR ( 'NONE', #211, 1000.000000000000000 ) ;
#228 = VECTOR ( 'NONE', #132, 1000.000000000000000 ) ;
#229 = VECTOR ( 'NONE', #21, 1000.000000000000000 ) ;
#230 = VECTOR ( 'NONE', #128, 1000.000000000000000 ) ;
#231 = ADVANCED_FACE ( 'NONE', ( #32 ), #48, .F. ) ;
#232 = EDGE_CURVE ( 'NONE', #25, #208, #197, .T. ) ;
#233 = VECTOR ( 'NONE', #188, 1000.000000000000000 ) ;
#234 = CARTESIAN_POINT ( 'NONE',  ( -6.349999999999999645, -6.349999999999999645, 3.000000000000000000 ) ) ;
#235 = APPROVAL_PERSON_ORGANIZATION ( #86, #34, #79 ) ;
#236 = FACE_OUTER_BOUND ( 'NONE', #101, .T. ) ;
#237 = PLANE ( 'NONE',  #126 ) ;
ENDSEC;
END-ISO-10303-21;
