ISO-10303-21;
HEADER;
FILE_DESCRIPTION (( 'STEP AP203' ),
    '1' );
FILE_NAME ('Web Model 36935_15799.step',
    '2020-11-03T21:43:38',
    ( '' ),
    ( '' ),
    'SwSTEP 2.0',
    'SolidWorks 2018',
    '' );
FILE_SCHEMA (( 'CONFIG_CONTROL_DESIGN' ));
ENDSEC;

DATA;
#1 = ADVANCED_FACE ( 'NONE', ( #64 ), #112, .T. ) ;
#2 = MANIFOLD_SOLID_BREP ( 'Boss-Extrude1', #17 ) ;
#3 = EDGE_LOOP ( 'NONE', ( #110, #61 ) ) ;
#4 = EDGE_CURVE ( 'NONE', #119, #66, #132, .T. ) ;
#5 = CARTESIAN_POINT ( 'NONE',  ( 0.0000000000000000000, 0.0000000000000000000, 1.500000000000000000 ) ) ;
#6 = DIRECTION ( 'NONE',  ( 0.0000000000000000000, 0.0000000000000000000, 1.000000000000000000 ) ) ;
#7 = APPROVAL_PERSON_ORGANIZATION ( #56, #68, #97 ) ;
#8 = CIRCLE ( 'NONE', #135, 37.50000000000000711 ) ;
#9 = DIRECTION ( 'NONE',  ( -1.000000000000000000, 0.0000000000000000000, 0.0000000000000000000 ) ) ;
#10 = CC_DESIGN_APPROVAL ( #68, ( #98 ) ) ;
#11 = DATE_TIME_ROLE ( 'classification_date' ) ;
#12 = PERSON_AND_ORGANIZATION_ROLE ( 'classification_officer' ) ;
#13 =( LENGTH_UNIT ( ) NAMED_UNIT ( * ) SI_UNIT ( .MILLI., .METRE. ) );
#14 = PERSON_AND_ORGANIZATION ( #42, #92 ) ;
#15 = COORDINATED_UNIVERSAL_TIME_OFFSET ( 5, 0, .BEHIND. ) ;
#16 = APPROVAL_DATE_TIME ( #54, #25 ) ;
#17 = CLOSED_SHELL ( 'NONE', ( #138, #1, #73, #75 ) ) ;
#18 = EDGE_CURVE ( 'NONE', #66, #94, #142, .T. ) ;
#19 = CC_DESIGN_PERSON_AND_ORGANIZATION_ASSIGNMENT ( #47, #65, ( #71 ) ) ;
#20 = DIRECTION ( 'NONE',  ( 1.000000000000000000, 0.0000000000000000000, -0.0000000000000000000 ) ) ;
#21 = SHAPE_DEFINITION_REPRESENTATION ( #147, #169 ) ;
#22 = CARTESIAN_POINT ( 'NONE',  ( 0.0000000000000000000, 0.0000000000000000000, 1.500000000000000000 ) ) ;
#23 = LOCAL_TIME ( 16, 43, 38.00000000000000000, #15 ) ;
#24 = DIRECTION ( 'NONE',  ( 0.0000000000000000000, 0.0000000000000000000, 1.000000000000000000 ) ) ;
#25 = APPROVAL ( #153, 'UNSPECIFIED' ) ;
#26 = CALENDAR_DATE ( 2020, 3, 11 ) ;
#27 = AXIS2_PLACEMENT_3D ( 'NONE', #166, #79, #117 ) ;
#28 = LINE ( 'NONE', #104, #140 ) ;
#29 = CC_DESIGN_DATE_AND_TIME_ASSIGNMENT ( #96, #11, ( #98 ) ) ;
#30 = APPROVAL ( #158, 'UNSPECIFIED' ) ;
#31 = CC_DESIGN_DATE_AND_TIME_ASSIGNMENT ( #38, #109, ( #63 ) ) ;
#32 = DATE_AND_TIME ( #89, #145 ) ;
#33 = PLANE ( 'NONE',  #163 ) ;
#34 = DIRECTION ( 'NONE',  ( 0.0000000000000000000, 0.0000000000000000000, 1.000000000000000000 ) ) ;
#35 = AXIS2_PLACEMENT_3D ( 'NONE', #107, #131, #53 ) ;
#36 = APPROVAL_ROLE ( '' ) ;
#37 = CC_DESIGN_APPROVAL ( #30, ( #63 ) ) ;
#38 = DATE_AND_TIME ( #118, #70 ) ;
#39 = VECTOR ( 'NONE', #95, 1000.000000000000000 ) ;
#40 = PERSON_AND_ORGANIZATION ( #42, #92 ) ;
#41 = CC_DESIGN_SECURITY_CLASSIFICATION ( #98, ( #134 ) ) ;
#42 = PERSON ( 'UNSPECIFIED', 'UNSPECIFIED', 'UNSPECIFIED', ('UNSPECIFIED'), ('UNSPECIFIED'), ('UNSPECIFIED') ) ;
#43 = ORIENTED_EDGE ( 'NONE', *, *, #137, .T. ) ;
#44 = CC_DESIGN_PERSON_AND_ORGANIZATION_ASSIGNMENT ( #90, #170, ( #63 ) ) ;
#45 = DIRECTION ( 'NONE',  ( 0.0000000000000000000, 0.0000000000000000000, 1.000000000000000000 ) ) ;
#46 = DIRECTION ( 'NONE',  ( 0.0000000000000000000, 0.0000000000000000000, 1.000000000000000000 ) ) ;
#47 = PERSON_AND_ORGANIZATION ( #42, #92 ) ;
#48 = EDGE_LOOP ( 'NONE', ( #136, #114, #69, #173 ) ) ;
#49 = CARTESIAN_POINT ( 'NONE',  ( -37.50000000000000711, 0.0000000000000000000, 1.500000000000000000 ) ) ;
#50 = CARTESIAN_POINT ( 'NONE',  ( -37.50000000000000711, 0.0000000000000000000, -1.500000000000000000 ) ) ;
#51 = PERSON_AND_ORGANIZATION_ROLE ( 'creator' ) ;
#52 = COORDINATED_UNIVERSAL_TIME_OFFSET ( 5, 0, .BEHIND. ) ;
#53 = DIRECTION ( 'NONE',  ( 1.000000000000000000, 0.0000000000000000000, 0.0000000000000000000 ) ) ;
#54 = DATE_AND_TIME ( #60, #122 ) ;
#55 = EDGE_CURVE ( 'NONE', #119, #76, #28, .T. ) ;
#56 = PERSON_AND_ORGANIZATION ( #42, #92 ) ;
#57 = CC_DESIGN_APPROVAL ( #25, ( #134 ) ) ;
#58 = PERSON_AND_ORGANIZATION ( #42, #92 ) ;
#59 = PLANE ( 'NONE',  #100 ) ;
#60 = CALENDAR_DATE ( 2020, 3, 11 ) ;
#61 = ORIENTED_EDGE ( 'NONE', *, *, #137, .F. ) ;
#62 = CARTESIAN_POINT ( 'NONE',  ( 0.0000000000000000000, 0.0000000000000000000, 1.500000000000000000 ) ) ;
#63 = PRODUCT_DEFINITION ( 'UNKNOWN', '', #134, #124 ) ;
#64 = FACE_OUTER_BOUND ( 'NONE', #48, .T. ) ;
#65 = PERSON_AND_ORGANIZATION_ROLE ( 'design_owner' ) ;
#66 = VERTEX_POINT ( 'NONE', #49 ) ;
#67 = APPLICATION_PROTOCOL_DEFINITION ( 'international standard', 'config_control_design', 1994, #133 ) ;
#68 = APPROVAL ( #123, 'UNSPECIFIED' ) ;
#69 = ORIENTED_EDGE ( 'NONE', *, *, #18, .T. ) ;
#70 = LOCAL_TIME ( 16, 43, 38.00000000000000000, #52 ) ;
#71 = PRODUCT ( 'Web Model 36935_15799', 'Web Model 36935_15799', '', ( #81 ) ) ;
#72 = FACE_OUTER_BOUND ( 'NONE', #101, .T. ) ;
#73 = ADVANCED_FACE ( 'NONE', ( #175 ), #59, .T. ) ;
#74 = CC_DESIGN_PERSON_AND_ORGANIZATION_ASSIGNMENT ( #14, #51, ( #134 ) ) ;
#75 = ADVANCED_FACE ( 'NONE', ( #108 ), #33, .F. ) ;
#76 = VERTEX_POINT ( 'NONE', #148 ) ;
#77 = UNCERTAINTY_MEASURE_WITH_UNIT (LENGTH_MEASURE( 1.000000000000000082E-05 ), #13, 'distance_accuracy_value', 'NONE');
#78 = CARTESIAN_POINT ( 'NONE',  ( -37.50000000000000711, 0.0000000000000000000, 1.500000000000000000 ) ) ;
#79 = DIRECTION ( 'NONE',  ( -0.0000000000000000000, -0.0000000000000000000, -1.000000000000000000 ) ) ;
#80 = PRODUCT_RELATED_PRODUCT_CATEGORY ( 'detail', '', ( #71 ) ) ;
#81 = MECHANICAL_CONTEXT ( 'NONE', #133, 'mechanical' ) ;
#82 = DIRECTION ( 'NONE',  ( 1.000000000000000000, 0.0000000000000000000, 0.0000000000000000000 ) ) ;
#83 = CALENDAR_DATE ( 2020, 3, 11 ) ;
#84 =( NAMED_UNIT ( * ) PLANE_ANGLE_UNIT ( ) SI_UNIT ( $, .RADIAN. ) );
#85 = ORIENTED_EDGE ( 'NONE', *, *, #4, .F. ) ;
#86 = SECURITY_CLASSIFICATION_LEVEL ( 'unclassified' ) ;
#87 = COORDINATED_UNIVERSAL_TIME_OFFSET ( 5, 0, .BEHIND. ) ;
#88 = ORIENTED_EDGE ( 'NONE', *, *, #18, .F. ) ;
#89 = CALENDAR_DATE ( 2020, 3, 11 ) ;
#90 = PERSON_AND_ORGANIZATION ( #42, #92 ) ;
#91 = EDGE_LOOP ( 'NONE', ( #172, #126 ) ) ;
#92 = ORGANIZATION ( 'UNSPECIFIED', 'UNSPECIFIED', '' ) ;
#93 = CYLINDRICAL_SURFACE ( 'NONE', #27, 37.50000000000000711 ) ;
#94 = VERTEX_POINT ( 'NONE', #50 ) ;
#95 = DIRECTION ( 'NONE',  ( -0.0000000000000000000, -0.0000000000000000000, -1.000000000000000000 ) ) ;
#96 = DATE_AND_TIME ( #83, #23 ) ;
#97 = APPROVAL_ROLE ( '' ) ;
#98 = SECURITY_CLASSIFICATION ( '', '', #86 ) ;
#99 = PERSON_AND_ORGANIZATION ( #42, #92 ) ;
#100 = AXIS2_PLACEMENT_3D ( 'NONE', #62, #6, #20 ) ;
#101 = EDGE_LOOP ( 'NONE', ( #85, #150, #43, #88 ) ) ;
#102 = CIRCLE ( 'NONE', #106, 37.50000000000000711 ) ;
#103 = CARTESIAN_POINT ( 'NONE',  ( 37.50000000000000711, 4.592425496802575156E-15, 1.500000000000000000 ) ) ;
#104 = CARTESIAN_POINT ( 'NONE',  ( 37.50000000000000711, 4.592425496802575156E-15, 1.500000000000000000 ) ) ;
#105 = CARTESIAN_POINT ( 'NONE',  ( 0.0000000000000000000, 0.0000000000000000000, -1.500000000000000000 ) ) ;
#106 = AXIS2_PLACEMENT_3D ( 'NONE', #105, #45, #146 ) ;
#107 = CARTESIAN_POINT ( 'NONE',  ( 0.0000000000000000000, 0.0000000000000000000, -1.500000000000000000 ) ) ;
#108 = FACE_OUTER_BOUND ( 'NONE', #3, .T. ) ;
#109 = DATE_TIME_ROLE ( 'creation_date' ) ;
#110 = ORIENTED_EDGE ( 'NONE', *, *, #160, .F. ) ;
#111 = APPROVAL_DATE_TIME ( #149, #30 ) ;
#112 = CYLINDRICAL_SURFACE ( 'NONE', #156, 37.50000000000000711 ) ;
#113 = AXIS2_PLACEMENT_3D ( 'NONE', #151, #152, #164 ) ;
#114 = ORIENTED_EDGE ( 'NONE', *, *, #121, .F. ) ;
#115 =( GEOMETRIC_REPRESENTATION_CONTEXT ( 3 ) GLOBAL_UNCERTAINTY_ASSIGNED_CONTEXT ( ( #77 ) ) GLOBAL_UNIT_ASSIGNED_CONTEXT ( ( #13, #84, #125 ) ) REPRESENTATION_CONTEXT ( 'NONE', 'WORKASPACE' ) );
#116 = DIRECTION ( 'NONE',  ( -0.0000000000000000000, -0.0000000000000000000, -1.000000000000000000 ) ) ;
#117 = DIRECTION ( 'NONE',  ( -1.000000000000000000, 0.0000000000000000000, 0.0000000000000000000 ) ) ;
#118 = CALENDAR_DATE ( 2020, 3, 11 ) ;
#119 = VERTEX_POINT ( 'NONE', #103 ) ;
#120 = DIRECTION ( 'NONE',  ( 1.000000000000000000, 0.0000000000000000000, 0.0000000000000000000 ) ) ;
#121 = EDGE_CURVE ( 'NONE', #66, #119, #8, .T. ) ;
#122 = LOCAL_TIME ( 16, 43, 38.00000000000000000, #87 ) ;
#123 = APPROVAL_STATUS ( 'not_yet_approved' ) ;
#124 = DESIGN_CONTEXT ( 'detailed design', #168, 'design' ) ;
#125 =( NAMED_UNIT ( * ) SI_UNIT ( $, .STERADIAN. ) SOLID_ANGLE_UNIT ( ) );
#126 = ORIENTED_EDGE ( 'NONE', *, *, #4, .T. ) ;
#127 = CC_DESIGN_PERSON_AND_ORGANIZATION_ASSIGNMENT ( #128, #155, ( #134 ) ) ;
#128 = PERSON_AND_ORGANIZATION ( #42, #92 ) ;
#129 = CC_DESIGN_PERSON_AND_ORGANIZATION_ASSIGNMENT ( #40, #12, ( #98 ) ) ;
#130 = CARTESIAN_POINT ( 'NONE',  ( 0.0000000000000000000, 0.0000000000000000000, -1.500000000000000000 ) ) ;
#131 = DIRECTION ( 'NONE',  ( 0.0000000000000000000, 0.0000000000000000000, 1.000000000000000000 ) ) ;
#132 = CIRCLE ( 'NONE', #113, 37.50000000000000711 ) ;
#133 = APPLICATION_CONTEXT ( 'configuration controlled 3d designs of mechanical parts and assemblies' ) ;
#134 = PRODUCT_DEFINITION_FORMATION_WITH_SPECIFIED_SOURCE ( 'ANY', '', #71, .NOT_KNOWN. ) ;
#135 = AXIS2_PLACEMENT_3D ( 'NONE', #22, #34, #120 ) ;
#136 = ORIENTED_EDGE ( 'NONE', *, *, #55, .F. ) ;
#137 = EDGE_CURVE ( 'NONE', #76, #94, #102, .T. ) ;
#138 = ADVANCED_FACE ( 'NONE', ( #72 ), #93, .T. ) ;
#139 = AXIS2_PLACEMENT_3D ( 'NONE', #141, #24, #82 ) ;
#140 = VECTOR ( 'NONE', #116, 1000.000000000000000 ) ;
#141 = CARTESIAN_POINT ( 'NONE',  ( 0.0000000000000000000, 0.0000000000000000000, 0.0000000000000000000 ) ) ;
#142 = LINE ( 'NONE', #78, #39 ) ;
#143 = APPROVAL_PERSON_ORGANIZATION ( #58, #25, #171 ) ;
#144 = CIRCLE ( 'NONE', #35, 37.50000000000000711 ) ;
#145 = LOCAL_TIME ( 16, 43, 38.00000000000000000, #174 ) ;
#146 = DIRECTION ( 'NONE',  ( 1.000000000000000000, 0.0000000000000000000, 0.0000000000000000000 ) ) ;
#147 = PRODUCT_DEFINITION_SHAPE ( 'NONE', 'NONE',  #63 ) ;
#148 = CARTESIAN_POINT ( 'NONE',  ( 37.50000000000000711, 4.592425496802575156E-15, -1.500000000000000000 ) ) ;
#149 = DATE_AND_TIME ( #26, #154 ) ;
#150 = ORIENTED_EDGE ( 'NONE', *, *, #55, .T. ) ;
#151 = CARTESIAN_POINT ( 'NONE',  ( 0.0000000000000000000, 0.0000000000000000000, 1.500000000000000000 ) ) ;
#152 = DIRECTION ( 'NONE',  ( 0.0000000000000000000, 0.0000000000000000000, 1.000000000000000000 ) ) ;
#153 = APPROVAL_STATUS ( 'not_yet_approved' ) ;
#154 = LOCAL_TIME ( 16, 43, 38.00000000000000000, #159 ) ;
#155 = PERSON_AND_ORGANIZATION_ROLE ( 'design_supplier' ) ;
#156 = AXIS2_PLACEMENT_3D ( 'NONE', #5, #165, #9 ) ;
#157 = APPLICATION_PROTOCOL_DEFINITION ( 'international standard', 'config_control_design', 1994, #168 ) ;
#158 = APPROVAL_STATUS ( 'not_yet_approved' ) ;
#159 = COORDINATED_UNIVERSAL_TIME_OFFSET ( 5, 0, .BEHIND. ) ;
#160 = EDGE_CURVE ( 'NONE', #94, #76, #144, .T. ) ;
#161 = APPROVAL_PERSON_ORGANIZATION ( #99, #30, #36 ) ;
#162 = APPROVAL_DATE_TIME ( #32, #68 ) ;
#163 = AXIS2_PLACEMENT_3D ( 'NONE', #130, #46, #167 ) ;
#164 = DIRECTION ( 'NONE',  ( 1.000000000000000000, 0.0000000000000000000, 0.0000000000000000000 ) ) ;
#165 = DIRECTION ( 'NONE',  ( -0.0000000000000000000, -0.0000000000000000000, -1.000000000000000000 ) ) ;
#166 = CARTESIAN_POINT ( 'NONE',  ( 0.0000000000000000000, 0.0000000000000000000, 1.500000000000000000 ) ) ;
#167 = DIRECTION ( 'NONE',  ( 1.000000000000000000, 0.0000000000000000000, -0.0000000000000000000 ) ) ;
#168 = APPLICATION_CONTEXT ( 'configuration controlled 3d designs of mechanical parts and assemblies' ) ;
#169 = ADVANCED_BREP_SHAPE_REPRESENTATION ( 'Web Model 36935_15799', ( #2, #139 ), #115 ) ;
#170 = PERSON_AND_ORGANIZATION_ROLE ( 'creator' ) ;
#171 = APPROVAL_ROLE ( '' ) ;
#172 = ORIENTED_EDGE ( 'NONE', *, *, #121, .T. ) ;
#173 = ORIENTED_EDGE ( 'NONE', *, *, #160, .T. ) ;
#174 = COORDINATED_UNIVERSAL_TIME_OFFSET ( 5, 0, .BEHIND. ) ;
#175 = FACE_OUTER_BOUND ( 'NONE', #91, .T. ) ;
ENDSEC;
END-ISO-10303-21;
