ISO-10303-21;
HEADER;
FILE_DESCRIPTION (( 'STEP AP203' ),
    '1' );
FILE_NAME ('TTN047581-E0W.STEP',
    '2019-05-30T15:03:52',
    ( '' ),
    ( '' ),
    'SwSTEP 2.0',
    'SolidWorks 2018',
    '' );
FILE_SCHEMA (( 'CONFIG_CONTROL_DESIGN' ));
ENDSEC;

DATA;
#1 = DIRECTION ( 'NONE',  ( 0.0000000000000000000, 1.000000000000000000, 3.073328992872301298E-16 ) ) ;
#2 = COORDINATED_UNIVERSAL_TIME_OFFSET ( 5, 0, .BEHIND. ) ;
#3 = ORIENTED_EDGE ( 'NONE', *, *, #170, .F. ) ;
#4 = LOCAL_TIME ( 11, 3, 52.00000000000000000, #123 ) ;
#5 =( NAMED_UNIT ( * ) PLANE_ANGLE_UNIT ( ) SI_UNIT ( $, .RADIAN. ) );
#6 = CC_DESIGN_DATE_AND_TIME_ASSIGNMENT ( #195, #70, ( #249 ) ) ;
#7 = DESIGN_CONTEXT ( 'detailed design', #207, 'design' ) ;
#8 = ORIENTED_EDGE ( 'NONE', *, *, #175, .F. ) ;
#9 = COORDINATED_UNIVERSAL_TIME_OFFSET ( 5, 0, .BEHIND. ) ;
#10 = ADVANCED_FACE ( 'NONE', ( #232 ), #53, .T. ) ;
#11 = ORIENTED_EDGE ( 'NONE', *, *, #245, .F. ) ;
#12 = ORIENTED_EDGE ( 'NONE', *, *, #214, .F. ) ;
#13 = AXIS2_PLACEMENT_3D ( 'NONE', #266, #109, #270 ) ;
#14 = FACE_OUTER_BOUND ( 'NONE', #218, .T. ) ;
#15 = DIRECTION ( 'NONE',  ( -0.0000000000000000000, 3.061515884555942652E-16, -1.000000000000000000 ) ) ;
#16 = ORIENTED_EDGE ( 'NONE', *, *, #281, .F. ) ;
#17 = DIRECTION ( 'NONE',  ( 8.659560562354934091E-17, 0.7071067811865473507, 0.7071067811865477948 ) ) ;
#18 = ORIENTED_EDGE ( 'NONE', *, *, #54, .F. ) ;
#19 = CIRCLE ( 'NONE', #131, 6.149999999999999467 ) ;
#20 = CARTESIAN_POINT ( 'NONE',  ( 0.0000000000000000000, 6.349999999999989875, -1.179999999999997939 ) ) ;
#21 = CARTESIAN_POINT ( 'NONE',  ( 7.531577814756221078E-16, 6.150000000000000355, -1.179999999999998828 ) ) ;
#22 = APPROVAL ( #261, 'UNSPECIFIED' ) ;
#23 = DIRECTION ( 'NONE',  ( -0.0000000000000000000, 3.061515884555845524E-16, -1.000000000000000000 ) ) ;
#24 = CARTESIAN_POINT ( 'NONE',  ( 0.0000000000000000000, 3.918740332231639372E-16, -0.9800000000000106404 ) ) ;
#25 = FACE_OUTER_BOUND ( 'NONE', #66, .T. ) ;
#26 = DIRECTION ( 'NONE',  ( 0.0000000000000000000, 0.6658908971551258382, -0.7460491358388813277 ) ) ;
#27 = VECTOR ( 'NONE', #17, 1000.000000000000000 ) ;
#28 = AXIS2_PLACEMENT_3D ( 'NONE', #129, #224, #78 ) ;
#29 = DIRECTION ( 'NONE',  ( 1.000000000000000000, 0.0000000000000000000, 0.0000000000000000000 ) ) ;
#30 = DIRECTION ( 'NONE',  ( 0.0000000000000000000, 1.000000000000000000, 2.473494422666810435E-16 ) ) ;
#31 = ADVANCED_FACE ( 'NONE', ( #36 ), #97, .T. ) ;
#32 = ADVANCED_FACE ( 'NONE', ( #151 ), #59, .T. ) ;
#33 = AXIS2_PLACEMENT_3D ( 'NONE', #79, #177, #108 ) ;
#34 = ORIENTED_EDGE ( 'NONE', *, *, #190, .F. ) ;
#35 = ORIENTED_EDGE ( 'NONE', *, *, #145, .T. ) ;
#36 = FACE_OUTER_BOUND ( 'NONE', #254, .T. ) ;
#37 = ORIENTED_EDGE ( 'NONE', *, *, #180, .F. ) ;
#38 = CARTESIAN_POINT ( 'NONE',  ( 0.0000000000000000000, 6.601363010914935765E-15, -54.92600000000003035 ) ) ;
#39 = LINE ( 'NONE', #20, #106 ) ;
#40 = VECTOR ( 'NONE', #277, 1000.000000000000000 ) ;
#41 = CARTESIAN_POINT ( 'NONE',  ( 0.0000000000000000000, 6.151640121288144414, 0.8417376250657764292 ) ) ;
#42 = EDGE_CURVE ( 'NONE', #113, #68, #43, .T. ) ;
#43 = CIRCLE ( 'NONE', #265, 56.10600000000020060 ) ;
#44 = DIRECTION ( 'NONE',  ( 0.0000000000000000000, 1.000000000000000000, 3.073328992872301298E-16 ) ) ;
#45 = DIRECTION ( 'NONE',  ( 0.0000000000000000000, -3.061515884555845524E-16, 1.000000000000000000 ) ) ;
#46 = DATE_AND_TIME ( #96, #94 ) ;
#47 = CARTESIAN_POINT ( 'NONE',  ( 7.776507174585680330E-16, -6.349999999999988987, 0.6194996928004703474 ) ) ;
#48 = DIRECTION ( 'NONE',  ( -0.0000000000000000000, 3.061515884555942652E-16, -1.000000000000000000 ) ) ;
#49 = DIRECTION ( 'NONE',  ( 0.0000000000000000000, 0.0000000000000000000, 1.000000000000000000 ) ) ;
#50 = CIRCLE ( 'NONE', #201, 56.10600000000020060 ) ;
#51 = FACE_OUTER_BOUND ( 'NONE', #229, .T. ) ;
#52 = AXIS2_PLACEMENT_3D ( 'NONE', #204, #114, #44 ) ;
#53 = CONICAL_SURFACE ( 'NONE', #13, 6.349999999999988987, 0.7286873360257888343 ) ;
#54 = EDGE_CURVE ( 'NONE', #263, #213, #115, .T. ) ;
#55 = CC_DESIGN_DATE_AND_TIME_ASSIGNMENT ( #98, #99, ( #223 ) ) ;
#56 = DIRECTION ( 'NONE',  ( -0.0000000000000000000, 3.061515884555942652E-16, -1.000000000000000000 ) ) ;
#57 = VERTEX_POINT ( 'NONE', #225 ) ;
#58 = PERSON_AND_ORGANIZATION ( #81, #242 ) ;
#59 = PLANE ( 'NONE',  #86 ) ;
#60 = CC_DESIGN_PERSON_AND_ORGANIZATION_ASSIGNMENT ( #216, #148, ( #256 ) ) ;
#61 = CARTESIAN_POINT ( 'NONE',  ( 0.0000000000000000000, 4.531043509142797433E-16, -1.180000000000000604 ) ) ;
#62 = CARTESIAN_POINT ( 'NONE',  ( 0.0000000000000000000, 6.349999999999988987, -0.9800000000000086420 ) ) ;
#63 = DIRECTION ( 'NONE',  ( 0.0000000000000000000, 1.000000000000000000, 3.073328992872301298E-16 ) ) ;
#64 = PRODUCT_RELATED_PRODUCT_CATEGORY ( 'detail', '', ( #89 ) ) ;
#65 = APPROVAL_ROLE ( '' ) ;
#66 = EDGE_LOOP ( 'NONE', ( #186, #11, #259, #174 ) ) ;
#67 = AXIS2_PLACEMENT_3D ( 'NONE', #61, #116, #138 ) ;
#68 = VERTEX_POINT ( 'NONE', #125 ) ;
#69 = CARTESIAN_POINT ( 'NONE',  ( 0.0000000000000000000, 4.531043509142796447E-16, -1.180000000000000604 ) ) ;
#70 = DATE_TIME_ROLE ( 'creation_date' ) ;
#71 = VECTOR ( 'NONE', #26, 999.9999999999998863 ) ;
#72 = APPROVAL_STATUS ( 'not_yet_approved' ) ;
#73 = PERSON_AND_ORGANIZATION_ROLE ( 'classification_officer' ) ;
#74 = EDGE_CURVE ( 'NONE', #105, #191, #157, .T. ) ;
#75 = ADVANCED_BREP_SHAPE_REPRESENTATION ( 'TTN047581-E0W', ( #192, #244 ), #226 ) ;
#76 = PRODUCT_DEFINITION_SHAPE ( 'NONE', 'NONE',  #249 ) ;
#77 = APPROVAL_PERSON_ORGANIZATION ( #239, #199, #288 ) ;
#78 = DIRECTION ( 'NONE',  ( 0.0000000000000000000, 1.000000000000000000, 2.473494422666810435E-16 ) ) ;
#79 = CARTESIAN_POINT ( 'NONE',  ( 0.0000000000000000000, -9.781533846193895382E-17, 0.6194996928004723458 ) ) ;
#80 = DIRECTION ( 'NONE',  ( 1.000000000000000000, 1.224646799147353207E-16, 3.749275628560213069E-32 ) ) ;
#81 = PERSON ( 'UNSPECIFIED', 'UNSPECIFIED', 'UNSPECIFIED', ('UNSPECIFIED'), ('UNSPECIFIED'), ('UNSPECIFIED') ) ;
#82 = CIRCLE ( 'NONE', #147, 6.349999999999988987 ) ;
#83 = CALENDAR_DATE ( 2019, 30, 5 ) ;
#84 = CARTESIAN_POINT ( 'NONE',  ( 7.776507174585680330E-16, -6.349999999999988098, -1.180000000000001714 ) ) ;
#85 = PERSON_AND_ORGANIZATION ( #81, #242 ) ;
#86 = AXIS2_PLACEMENT_3D ( 'NONE', #296, #295, #247 ) ;
#87 = CARTESIAN_POINT ( 'NONE',  ( 0.0000000000000000000, 6.349999999999988987, 0.6194996928004742331 ) ) ;
#88 = ORIENTED_EDGE ( 'NONE', *, *, #145, .F. ) ;
#89 = PRODUCT ( 'TTN047581-E0W', 'TTN047581-E0W', '', ( #235 ) ) ;
#90 = DIRECTION ( 'NONE',  ( -0.0000000000000000000, 3.061515884555942652E-16, -1.000000000000000000 ) ) ;
#91 = DIRECTION ( 'NONE',  ( 0.0000000000000000000, 1.000000000000000000, 3.173274651177086317E-16 ) ) ;
#92 = DIRECTION ( 'NONE',  ( 8.154811557823840409E-17, -0.6658908971551253941, -0.7460491358388817718 ) ) ;
#93 = ORIENTED_EDGE ( 'NONE', *, *, #175, .T. ) ;
#94 = LOCAL_TIME ( 11, 3, 52.00000000000000000, #9 ) ;
#95 = ADVANCED_FACE ( 'NONE', ( #51 ), #297, .T. ) ;
#96 = CALENDAR_DATE ( 2019, 30, 5 ) ;
#97 = SPHERICAL_SURFACE ( 'NONE', #28, 56.10600000000020060 ) ;
#98 = DATE_AND_TIME ( #130, #4 ) ;
#99 = DATE_TIME_ROLE ( 'classification_date' ) ;
#100 = CONICAL_SURFACE ( 'NONE', #67, 6.149999999999999467, 0.7853981633974482790 ) ;
#101 = DATE_AND_TIME ( #294, #171 ) ;
#102 = EDGE_CURVE ( 'NONE', #213, #191, #39, .T. ) ;
#103 = CARTESIAN_POINT ( 'NONE',  ( 7.654042494670950704E-16, 6.150000000000000355, -1.179999999999998828 ) ) ;
#104 = ORIENTED_EDGE ( 'NONE', *, *, #144, .T. ) ;
#105 = VERTEX_POINT ( 'NONE', #103 ) ;
#106 = VECTOR ( 'NONE', #56, 1000.000000000000000 ) ;
#107 = AXIS2_PLACEMENT_3D ( 'NONE', #160, #45, #163 ) ;
#108 = DIRECTION ( 'NONE',  ( 0.0000000000000000000, -1.000000000000000000, -3.073328992872301298E-16 ) ) ;
#109 = DIRECTION ( 'NONE',  ( -0.0000000000000000000, 3.061515884555845524E-16, -1.000000000000000000 ) ) ;
#110 = VERTEX_POINT ( 'NONE', #41 ) ;
#111 = CYLINDRICAL_SURFACE ( 'NONE', #167, 6.349999999999988987 ) ;
#112 = DIRECTION ( 'NONE',  ( 0.0000000000000000000, 1.000000000000000000, 3.073328992872301298E-16 ) ) ;
#113 = VERTEX_POINT ( 'NONE', #149 ) ;
#114 = DIRECTION ( 'NONE',  ( -0.0000000000000000000, 3.061515884555942652E-16, -1.000000000000000000 ) ) ;
#115 = CIRCLE ( 'NONE', #33, 6.349999999999988987 ) ;
#116 = DIRECTION ( 'NONE',  ( 0.0000000000000000000, -3.061515884555943639E-16, 1.000000000000000000 ) ) ;
#117 = CC_DESIGN_SECURITY_CLASSIFICATION ( #223, ( #256 ) ) ;
#118 = VECTOR ( 'NONE', #15, 1000.000000000000000 ) ;
#119 =( LENGTH_UNIT ( ) NAMED_UNIT ( * ) SI_UNIT ( .MILLI., .METRE. ) );
#120 = CIRCLE ( 'NONE', #210, 6.349999999999988987 ) ;
#121 = AXIS2_PLACEMENT_3D ( 'NONE', #248, #23, #112 ) ;
#122 = LINE ( 'NONE', #209, #219 ) ;
#123 = COORDINATED_UNIVERSAL_TIME_OFFSET ( 5, 0, .BEHIND. ) ;
#124 = APPROVAL_DATE_TIME ( #197, #199 ) ;
#125 = CARTESIAN_POINT ( 'NONE',  ( 7.533586384041974254E-16, -6.151640121288164842, 0.8417376250657746528 ) ) ;
#126 = DIRECTION ( 'NONE',  ( -1.224646799147353207E-16, 1.000000000000000000, 0.0000000000000000000 ) ) ;
#127 = ORIENTED_EDGE ( 'NONE', *, *, #180, .T. ) ;
#128 = COORDINATED_UNIVERSAL_TIME_OFFSET ( 5, 0, .BEHIND. ) ;
#129 = CARTESIAN_POINT ( 'NONE',  ( 0.0000000000000000000, 6.601363010914935765E-15, -54.92600000000003035 ) ) ;
#130 = CALENDAR_DATE ( 2019, 30, 5 ) ;
#131 = AXIS2_PLACEMENT_3D ( 'NONE', #233, #90, #212 ) ;
#132 = DIRECTION ( 'NONE',  ( 0.0000000000000000000, -1.000000000000000000, -3.173274651177086317E-16 ) ) ;
#133 = DIRECTION ( 'NONE',  ( -1.000000000000000000, 0.0000000000000000000, 0.0000000000000000000 ) ) ;
#134 = EDGE_LOOP ( 'NONE', ( #16, #37, #93, #18 ) ) ;
#135 = CARTESIAN_POINT ( 'NONE',  ( 0.0000000000000000000, -6.149999999999998579, -1.180000000000002602 ) ) ;
#136 = COORDINATED_UNIVERSAL_TIME_OFFSET ( 5, 0, .BEHIND. ) ;
#137 = DIRECTION ( 'NONE',  ( 0.0000000000000000000, -3.061515884555943639E-16, 1.000000000000000000 ) ) ;
#138 = DIRECTION ( 'NONE',  ( 0.0000000000000000000, -1.000000000000000000, -3.173274651177086317E-16 ) ) ;
#139 = ORIENTED_EDGE ( 'NONE', *, *, #298, .T. ) ;
#140 = PERSON_AND_ORGANIZATION ( #81, #242 ) ;
#141 = LINE ( 'NONE', #84, #118 ) ;
#142 = DIRECTION ( 'NONE',  ( 1.000000000000000000, 0.0000000000000000000, -0.0000000000000000000 ) ) ;
#143 = CONICAL_SURFACE ( 'NONE', #121, 6.349999999999988987, 0.7286873360257888343 ) ;
#144 = EDGE_CURVE ( 'NONE', #68, #110, #215, .T. ) ;
#145 = EDGE_CURVE ( 'NONE', #263, #162, #141, .T. ) ;
#146 = EDGE_LOOP ( 'NONE', ( #194, #139 ) ) ;
#147 = AXIS2_PLACEMENT_3D ( 'NONE', #24, #200, #63 ) ;
#148 = PERSON_AND_ORGANIZATION_ROLE ( 'creator' ) ;
#149 = CARTESIAN_POINT ( 'NONE',  ( 0.0000000000000000000, -7.140076345326613382E-15, 1.180000000000167137 ) ) ;
#150 = AXIS2_PLACEMENT_3D ( 'NONE', #153, #251, #132 ) ;
#151 = FACE_OUTER_BOUND ( 'NONE', #146, .T. ) ;
#152 = LOCAL_TIME ( 11, 3, 52.00000000000000000, #136 ) ;
#153 = CARTESIAN_POINT ( 'NONE',  ( 0.0000000000000000000, 4.531043509142797433E-16, -1.180000000000000604 ) ) ;
#154 = PERSON_AND_ORGANIZATION ( #81, #242 ) ;
#155 = APPROVAL_PERSON_ORGANIZATION ( #185, #260, #65 ) ;
#156 = CARTESIAN_POINT ( 'NONE',  ( 0.0000000000000000000, -9.781533846193895382E-17, 0.6194996928004723458 ) ) ;
#157 = LINE ( 'NONE', #21, #27 ) ;
#158 = CARTESIAN_POINT ( 'NONE',  ( 7.776507174585680330E-16, -6.349999999999988987, -0.9800000000000125278 ) ) ;
#159 = PERSON_AND_ORGANIZATION_ROLE ( 'design_supplier' ) ;
#160 = CARTESIAN_POINT ( 'NONE',  ( 0.0000000000000000000, -1.047201844757322996E-14, 0.8417376250657790937 ) ) ;
#161 = CIRCLE ( 'NONE', #290, 6.349999999999988987 ) ;
#162 = VERTEX_POINT ( 'NONE', #158 ) ;
#163 = DIRECTION ( 'NONE',  ( 0.0000000000000000000, 1.000000000000000000, 2.996182573891187895E-16 ) ) ;
#164 = EDGE_CURVE ( 'NONE', #113, #110, #50, .T. ) ;
#165 = CARTESIAN_POINT ( 'NONE',  ( 0.0000000000000000000, 6.601363010914935765E-15, -54.92600000000003035 ) ) ;
#166 = CARTESIAN_POINT ( 'NONE',  ( 0.0000000000000000000, 0.0000000000000000000, 0.0000000000000000000 ) ) ;
#167 = AXIS2_PLACEMENT_3D ( 'NONE', #205, #253, #1 ) ;
#168 = PERSON_AND_ORGANIZATION_ROLE ( 'design_owner' ) ;
#169 = ORIENTED_EDGE ( 'NONE', *, *, #144, .F. ) ;
#170 = EDGE_CURVE ( 'NONE', #162, #191, #82, .T. ) ;
#171 = LOCAL_TIME ( 11, 3, 52.00000000000000000, #128 ) ;
#172 = ADVANCED_FACE ( 'NONE', ( #196 ), #143, .T. ) ;
#173 = AXIS2_PLACEMENT_3D ( 'NONE', #165, #142, #30 ) ;
#174 = ORIENTED_EDGE ( 'NONE', *, *, #208, .F. ) ;
#175 = EDGE_CURVE ( 'NONE', #110, #213, #202, .T. ) ;
#176 = ORIENTED_EDGE ( 'NONE', *, *, #42, .F. ) ;
#177 = DIRECTION ( 'NONE',  ( -0.0000000000000000000, 3.061515884555845524E-16, -1.000000000000000000 ) ) ;
#178 = ORIENTED_EDGE ( 'NONE', *, *, #190, .T. ) ;
#179 = DIRECTION ( 'NONE',  ( 0.0000000000000000000, -1.000000000000000000, -3.073328992872301298E-16 ) ) ;
#180 = EDGE_CURVE ( 'NONE', #110, #68, #221, .T. ) ;
#181 = ORIENTED_EDGE ( 'NONE', *, *, #170, .T. ) ;
#182 = SHAPE_DEFINITION_REPRESENTATION ( #76, #75 ) ;
#183 = DIRECTION ( 'NONE',  ( 0.0000000000000000000, 1.000000000000000000, 2.996182573891187895E-16 ) ) ;
#184 = ORIENTED_EDGE ( 'NONE', *, *, #74, .T. ) ;
#185 = PERSON_AND_ORGANIZATION ( #81, #242 ) ;
#186 = ORIENTED_EDGE ( 'NONE', *, *, #74, .F. ) ;
#187 = APPLICATION_PROTOCOL_DEFINITION ( 'international standard', 'config_control_design', 1994, #207 ) ;
#188 = APPROVAL_STATUS ( 'not_yet_approved' ) ;
#189 = SPHERICAL_SURFACE ( 'NONE', #173, 56.10600000000020060 ) ;
#190 = EDGE_CURVE ( 'NONE', #213, #263, #120, .T. ) ;
#191 = VERTEX_POINT ( 'NONE', #62 ) ;
#192 = MANIFOLD_SOLID_BREP ( 'TTN047582-1-solid1', #258 ) ;
#193 = CC_DESIGN_APPROVAL ( #199, ( #223 ) ) ;
#194 = ORIENTED_EDGE ( 'NONE', *, *, #245, .T. ) ;
#195 = DATE_AND_TIME ( #230, #241 ) ;
#196 = FACE_OUTER_BOUND ( 'NONE', #273, .T. ) ;
#197 = DATE_AND_TIME ( #83, #152 ) ;
#198 = ADVANCED_FACE ( 'NONE', ( #14 ), #231, .T. ) ;
#199 = APPROVAL ( #72, 'UNSPECIFIED' ) ;
#200 = DIRECTION ( 'NONE',  ( 0.0000000000000000000, -3.061515884555943639E-16, 1.000000000000000000 ) ) ;
#201 = AXIS2_PLACEMENT_3D ( 'NONE', #257, #133, #255 ) ;
#202 = LINE ( 'NONE', #87, #71 ) ;
#203 = CARTESIAN_POINT ( 'NONE',  ( 0.0000000000000000000, 6.349999999999988987, 0.6194996928004742331 ) ) ;
#204 = CARTESIAN_POINT ( 'NONE',  ( 0.0000000000000000000, 4.531043509142794475E-16, -1.179999999999999938 ) ) ;
#205 = CARTESIAN_POINT ( 'NONE',  ( 0.0000000000000000000, 4.531043509142794475E-16, -1.179999999999999938 ) ) ;
#206 = ORIENTED_EDGE ( 'NONE', *, *, #54, .T. ) ;
#207 = APPLICATION_CONTEXT ( 'configuration controlled 3d designs of mechanical parts and assemblies' ) ;
#208 = EDGE_CURVE ( 'NONE', #191, #162, #161, .T. ) ;
#209 = CARTESIAN_POINT ( 'NONE',  ( 7.776507174585680330E-16, -6.349999999999988987, 0.6194996928004703474 ) ) ;
#210 = AXIS2_PLACEMENT_3D ( 'NONE', #156, #228, #179 ) ;
#211 = ADVANCED_FACE ( 'NONE', ( #25 ), #100, .T. ) ;
#212 = DIRECTION ( 'NONE',  ( 0.0000000000000000000, 1.000000000000000000, 3.173274651177086317E-16 ) ) ;
#213 = VERTEX_POINT ( 'NONE', #203 ) ;
#214 = EDGE_CURVE ( 'NONE', #57, #162, #289, .T. ) ;
#215 = CIRCLE ( 'NONE', #107, 6.151640121288199481 ) ;
#216 = PERSON_AND_ORGANIZATION ( #81, #242 ) ;
#217 = AXIS2_PLACEMENT_3D ( 'NONE', #299, #252, #183 ) ;
#218 = EDGE_LOOP ( 'NONE', ( #178, #35, #181, #238 ) ) ;
#219 = VECTOR ( 'NONE', #92, 999.9999999999998863 ) ;
#220 = UNCERTAINTY_MEASURE_WITH_UNIT (LENGTH_MEASURE( 1.000000000000000082E-05 ), #119, 'distance_accuracy_value', 'NONE');
#221 = CIRCLE ( 'NONE', #217, 6.151640121288199481 ) ;
#222 = EDGE_LOOP ( 'NONE', ( #176, #293, #127 ) ) ;
#223 = SECURITY_CLASSIFICATION ( '', '', #262 ) ;
#224 = DIRECTION ( 'NONE',  ( 1.000000000000000000, 0.0000000000000000000, -0.0000000000000000000 ) ) ;
#225 = CARTESIAN_POINT ( 'NONE',  ( 0.0000000000000000000, -6.149999999999998579, -1.180000000000002602 ) ) ;
#226 =( GEOMETRIC_REPRESENTATION_CONTEXT ( 3 ) GLOBAL_UNCERTAINTY_ASSIGNED_CONTEXT ( ( #220 ) ) GLOBAL_UNIT_ASSIGNED_CONTEXT ( ( #119, #5, #280 ) ) REPRESENTATION_CONTEXT ( 'NONE', 'WORKASPACE' ) );
#227 = CIRCLE ( 'NONE', #285, 6.149999999999999467 ) ;
#228 = DIRECTION ( 'NONE',  ( -0.0000000000000000000, 3.061515884555845524E-16, -1.000000000000000000 ) ) ;
#229 = EDGE_LOOP ( 'NONE', ( #283, #184, #3, #12 ) ) ;
#230 = CALENDAR_DATE ( 2019, 30, 5 ) ;
#231 = CYLINDRICAL_SURFACE ( 'NONE', #52, 6.349999999999988987 ) ;
#232 = FACE_OUTER_BOUND ( 'NONE', #134, .T. ) ;
#233 = CARTESIAN_POINT ( 'NONE',  ( 0.0000000000000000000, 4.531043509142796447E-16, -1.180000000000000604 ) ) ;
#234 = APPLICATION_CONTEXT ( 'configuration controlled 3d designs of mechanical parts and assemblies' ) ;
#235 = MECHANICAL_CONTEXT ( 'NONE', #234, 'mechanical' ) ;
#236 = APPROVAL_ROLE ( '' ) ;
#237 = CC_DESIGN_PERSON_AND_ORGANIZATION_ASSIGNMENT ( #268, #301, ( #249 ) ) ;
#238 = ORIENTED_EDGE ( 'NONE', *, *, #102, .F. ) ;
#239 = PERSON_AND_ORGANIZATION ( #81, #242 ) ;
#240 = CC_DESIGN_PERSON_AND_ORGANIZATION_ASSIGNMENT ( #85, #73, ( #223 ) ) ;
#241 = LOCAL_TIME ( 11, 3, 52.00000000000000000, #2 ) ;
#242 = ORGANIZATION ( 'UNSPECIFIED', 'UNSPECIFIED', '' ) ;
#243 = ORIENTED_EDGE ( 'NONE', *, *, #42, .T. ) ;
#244 = AXIS2_PLACEMENT_3D ( 'NONE', #166, #49, #29 ) ;
#245 = EDGE_CURVE ( 'NONE', #57, #105, #19, .T. ) ;
#246 = ORIENTED_EDGE ( 'NONE', *, *, #208, .T. ) ;
#247 = DIRECTION ( 'NONE',  ( 0.0000000000000000000, 1.000000000000000000, 3.061515884555942652E-16 ) ) ;
#248 = CARTESIAN_POINT ( 'NONE',  ( 0.0000000000000000000, -9.781533846194231880E-17, 0.6194996928004723458 ) ) ;
#249 = PRODUCT_DEFINITION ( 'UNKNOWN', '', #256, #7 ) ;
#250 = EDGE_LOOP ( 'NONE', ( #88, #206, #269, #246 ) ) ;
#251 = DIRECTION ( 'NONE',  ( 0.0000000000000000000, -3.061515884555943639E-16, 1.000000000000000000 ) ) ;
#252 = DIRECTION ( 'NONE',  ( 0.0000000000000000000, -3.061515884555845524E-16, 1.000000000000000000 ) ) ;
#253 = DIRECTION ( 'NONE',  ( -0.0000000000000000000, 3.061515884555942652E-16, -1.000000000000000000 ) ) ;
#254 = EDGE_LOOP ( 'NONE', ( #274, #243, #104 ) ) ;
#255 = DIRECTION ( 'NONE',  ( 0.0000000000000000000, 0.0000000000000000000, 1.000000000000000000 ) ) ;
#256 = PRODUCT_DEFINITION_FORMATION_WITH_SPECIFIED_SOURCE ( 'ANY', '', #89, .NOT_KNOWN. ) ;
#257 = CARTESIAN_POINT ( 'NONE',  ( 0.0000000000000000000, 6.601363010914935765E-15, -54.92600000000003035 ) ) ;
#258 = CLOSED_SHELL ( 'NONE', ( #172, #95, #198, #31, #32, #282, #271, #211, #10 ) ) ;
#259 = ORIENTED_EDGE ( 'NONE', *, *, #214, .T. ) ;
#260 = APPROVAL ( #188, 'UNSPECIFIED' ) ;
#261 = APPROVAL_STATUS ( 'not_yet_approved' ) ;
#262 = SECURITY_CLASSIFICATION_LEVEL ( 'unclassified' ) ;
#263 = VERTEX_POINT ( 'NONE', #47 ) ;
#264 = APPROVAL_DATE_TIME ( #46, #260 ) ;
#265 = AXIS2_PLACEMENT_3D ( 'NONE', #38, #80, #126 ) ;
#266 = CARTESIAN_POINT ( 'NONE',  ( 0.0000000000000000000, -9.781533846194231880E-17, 0.6194996928004723458 ) ) ;
#267 = CC_DESIGN_APPROVAL ( #22, ( #256 ) ) ;
#268 = PERSON_AND_ORGANIZATION ( #81, #242 ) ;
#269 = ORIENTED_EDGE ( 'NONE', *, *, #102, .T. ) ;
#270 = DIRECTION ( 'NONE',  ( 0.0000000000000000000, 1.000000000000000000, 3.073328992872301298E-16 ) ) ;
#271 = ADVANCED_FACE ( 'NONE', ( #292 ), #111, .T. ) ;
#272 = CC_DESIGN_APPROVAL ( #260, ( #249 ) ) ;
#273 = EDGE_LOOP ( 'NONE', ( #169, #291, #34, #8 ) ) ;
#274 = ORIENTED_EDGE ( 'NONE', *, *, #164, .F. ) ;
#275 = DIRECTION ( 'NONE',  ( 0.0000000000000000000, 1.000000000000000000, 3.073328992872301298E-16 ) ) ;
#276 = CARTESIAN_POINT ( 'NONE',  ( 0.0000000000000000000, 3.918740332231639372E-16, -0.9800000000000106404 ) ) ;
#277 = DIRECTION ( 'NONE',  ( 0.0000000000000000000, -0.7071067811865477948, 0.7071067811865473507 ) ) ;
#278 = APPROVAL_DATE_TIME ( #101, #22 ) ;
#279 = APPLICATION_PROTOCOL_DEFINITION ( 'international standard', 'config_control_design', 1994, #234 ) ;
#280 =( NAMED_UNIT ( * ) SI_UNIT ( $, .STERADIAN. ) SOLID_ANGLE_UNIT ( ) );
#281 = EDGE_CURVE ( 'NONE', #68, #263, #122, .T. ) ;
#282 = ADVANCED_FACE ( 'NONE', ( #284 ), #189, .T. ) ;
#283 = ORIENTED_EDGE ( 'NONE', *, *, #298, .F. ) ;
#284 = FACE_OUTER_BOUND ( 'NONE', #222, .T. ) ;
#285 = AXIS2_PLACEMENT_3D ( 'NONE', #69, #48, #91 ) ;
#286 = CC_DESIGN_PERSON_AND_ORGANIZATION_ASSIGNMENT ( #154, #159, ( #256 ) ) ;
#287 = APPROVAL_PERSON_ORGANIZATION ( #140, #22, #236 ) ;
#288 = APPROVAL_ROLE ( '' ) ;
#289 = LINE ( 'NONE', #135, #40 ) ;
#290 = AXIS2_PLACEMENT_3D ( 'NONE', #276, #137, #275 ) ;
#291 = ORIENTED_EDGE ( 'NONE', *, *, #281, .T. ) ;
#292 = FACE_OUTER_BOUND ( 'NONE', #250, .T. ) ;
#293 = ORIENTED_EDGE ( 'NONE', *, *, #164, .T. ) ;
#294 = CALENDAR_DATE ( 2019, 30, 5 ) ;
#295 = DIRECTION ( 'NONE',  ( -0.0000000000000000000, 3.061515884555942652E-16, -1.000000000000000000 ) ) ;
#296 = CARTESIAN_POINT ( 'NONE',  ( 0.0000000000000000000, 4.531043509142797433E-16, -1.180000000000000604 ) ) ;
#297 = CONICAL_SURFACE ( 'NONE', #150, 6.149999999999999467, 0.7853981633974482790 ) ;
#298 = EDGE_CURVE ( 'NONE', #105, #57, #227, .T. ) ;
#299 = CARTESIAN_POINT ( 'NONE',  ( 0.0000000000000000000, -1.047201844757322996E-14, 0.8417376250657790937 ) ) ;
#300 = CC_DESIGN_PERSON_AND_ORGANIZATION_ASSIGNMENT ( #58, #168, ( #89 ) ) ;
#301 = PERSON_AND_ORGANIZATION_ROLE ( 'creator' ) ;
ENDSEC;
END-ISO-10303-21;
