ISO-10303-21;
HEADER;
FILE_DESCRIPTION (( 'STEP AP203' ),
    '1' );
FILE_NAME ('Web Model 45658.STEP',
    '2017-01-31T15:18:29',
    ( '' ),
    ( '' ),
    'SwSTEP 2.0',
    'SolidWorks 2016',
    '' );
FILE_SCHEMA (( 'CONFIG_CONTROL_DESIGN' ));
ENDSEC;

DATA;
#1 = CALENDAR_DATE ( 2017, 31, 1 ) ;
#2 = EDGE_CURVE ( 'NONE', #87, #28, #95, .T. ) ;
#3 = ORIENTED_EDGE ( 'NONE', *, *, #130, .F. ) ;
#4 = ORIENTED_EDGE ( 'NONE', *, *, #49, .T. ) ;
#5 = ADVANCED_FACE ( 'NONE', ( #167 ), #145, .F. ) ;
#6 = AXIS2_PLACEMENT_3D ( 'NONE', #158, #79, #21 ) ;
#7 = CARTESIAN_POINT ( 'NONE',  ( 0.0000000000000000000, 0.0000000000000000000, -3.000000000000000000 ) ) ;
#8 = DIRECTION ( 'NONE',  ( 1.000000000000000000, 0.0000000000000000000, 0.0000000000000000000 ) ) ;
#9 = ORIENTED_EDGE ( 'NONE', *, *, #152, .F. ) ;
#10 = DIRECTION ( 'NONE',  ( 0.0000000000000000000, 0.0000000000000000000, 1.000000000000000000 ) ) ;
#11 = DIRECTION ( 'NONE',  ( 0.0000000000000000000, 0.0000000000000000000, 1.000000000000000000 ) ) ;
#12 = DIRECTION ( 'NONE',  ( 1.000000000000000000, 0.0000000000000000000, 0.0000000000000000000 ) ) ;
#13 = LOCAL_TIME ( 10, 18, 29.00000000000000000, #16 ) ;
#14 = PERSON_AND_ORGANIZATION ( #122, #50 ) ;
#15 = PERSON_AND_ORGANIZATION ( #122, #50 ) ;
#16 = COORDINATED_UNIVERSAL_TIME_OFFSET ( 5, 0, .BEHIND. ) ;
#17 = LINE ( 'NONE', #128, #151 ) ;
#18 = COORDINATED_UNIVERSAL_TIME_OFFSET ( 5, 0, .BEHIND. ) ;
#19 = ORIENTED_EDGE ( 'NONE', *, *, #2, .T. ) ;
#20 = CC_DESIGN_PERSON_AND_ORGANIZATION_ASSIGNMENT ( #41, #70, ( #93 ) ) ;
#21 = DIRECTION ( 'NONE',  ( 1.000000000000000000, 0.0000000000000000000, 0.0000000000000000000 ) ) ;
#22 = DIRECTION ( 'NONE',  ( 1.000000000000000000, 0.0000000000000000000, 0.0000000000000000000 ) ) ;
#23 = ORIENTED_EDGE ( 'NONE', *, *, #88, .F. ) ;
#24 = CIRCLE ( 'NONE', #56, 6.249999999999998200 ) ;
#25 = ORIENTED_EDGE ( 'NONE', *, *, #152, .T. ) ;
#26 = CALENDAR_DATE ( 2017, 31, 1 ) ;
#27 = AXIS2_PLACEMENT_3D ( 'NONE', #66, #64, #81 ) ;
#28 = VERTEX_POINT ( 'NONE', #107 ) ;
#29 = CALENDAR_DATE ( 2017, 31, 1 ) ;
#30 = ORIENTED_EDGE ( 'NONE', *, *, #49, .F. ) ;
#31 =( GEOMETRIC_REPRESENTATION_CONTEXT ( 3 ) GLOBAL_UNCERTAINTY_ASSIGNED_CONTEXT ( ( #102 ) ) GLOBAL_UNIT_ASSIGNED_CONTEXT ( ( #115, #157, #34 ) ) REPRESENTATION_CONTEXT ( 'NONE', 'WORKASPACE' ) );
#32 = CARTESIAN_POINT ( 'NONE',  ( -6.249999999999998200, 7.654042494670955600E-016, -3.000000000000000000 ) ) ;
#33 = APPROVAL_DATE_TIME ( #75, #144 ) ;
#34 =( NAMED_UNIT ( * ) SI_UNIT ( $, .STERADIAN. ) SOLID_ANGLE_UNIT ( ) );
#35 = DIRECTION ( 'NONE',  ( 0.0000000000000000000, 0.0000000000000000000, 1.000000000000000000 ) ) ;
#36 = AXIS2_PLACEMENT_3D ( 'NONE', #131, #114, #8 ) ;
#37 = DATE_TIME_ROLE ( 'creation_date' ) ;
#38 = PRODUCT_DEFINITION_SHAPE ( 'NONE', 'NONE',  #135 ) ;
#39 = AXIS2_PLACEMENT_3D ( 'NONE', #91, #51, #46 ) ;
#40 = ORIENTED_EDGE ( 'NONE', *, *, #130, .T. ) ;
#41 = PERSON_AND_ORGANIZATION ( #122, #50 ) ;
#42 = CYLINDRICAL_SURFACE ( 'NONE', #166, 6.249999999999998200 ) ;
#43 = CC_DESIGN_APPROVAL ( #164, ( #121 ) ) ;
#44 = ADVANCED_FACE ( 'NONE', ( #168 ), #85, .T. ) ;
#45 = DATE_AND_TIME ( #26, #68 ) ;
#46 = DIRECTION ( 'NONE',  ( 1.000000000000000000, 0.0000000000000000000, 0.0000000000000000000 ) ) ;
#47 = ORIENTED_EDGE ( 'NONE', *, *, #2, .F. ) ;
#48 = AXIS2_PLACEMENT_3D ( 'NONE', #113, #62, #12 ) ;
#49 = EDGE_CURVE ( 'NONE', #110, #28, #111, .T. ) ;
#50 = ORGANIZATION ( 'UNSPECIFIED', 'UNSPECIFIED', '' ) ;
#51 = DIRECTION ( 'NONE',  ( 0.0000000000000000000, 0.0000000000000000000, 1.000000000000000000 ) ) ;
#52 = LOCAL_TIME ( 10, 18, 29.00000000000000000, #154 ) ;
#53 = PERSON_AND_ORGANIZATION_ROLE ( 'creator' ) ;
#54 = APPROVAL_ROLE ( '' ) ;
#55 = SHAPE_DEFINITION_REPRESENTATION ( #38, #141 ) ;
#56 = AXIS2_PLACEMENT_3D ( 'NONE', #92, #146, #22 ) ;
#57 = CC_DESIGN_APPROVAL ( #144, ( #135 ) ) ;
#58 = ORIENTED_EDGE ( 'NONE', *, *, #88, .T. ) ;
#59 = ADVANCED_FACE ( 'NONE', ( #72 ), #148, .T. ) ;
#60 = EDGE_LOOP ( 'NONE', ( #23, #142 ) ) ;
#61 = DIRECTION ( 'NONE',  ( 1.000000000000000000, 0.0000000000000000000, 0.0000000000000000000 ) ) ;
#62 = DIRECTION ( 'NONE',  ( 0.0000000000000000000, 0.0000000000000000000, 1.000000000000000000 ) ) ;
#63 = CC_DESIGN_PERSON_AND_ORGANIZATION_ASSIGNMENT ( #124, #82, ( #121 ) ) ;
#64 = DIRECTION ( 'NONE',  ( 0.0000000000000000000, 0.0000000000000000000, 1.000000000000000000 ) ) ;
#65 = COORDINATED_UNIVERSAL_TIME_OFFSET ( 5, 0, .BEHIND. ) ;
#66 = CARTESIAN_POINT ( 'NONE',  ( 0.0000000000000000000, 0.0000000000000000000, 0.0000000000000000000 ) ) ;
#67 = CIRCLE ( 'NONE', #69, 6.249999999999998200 ) ;
#68 = LOCAL_TIME ( 10, 18, 29.00000000000000000, #139 ) ;
#69 = AXIS2_PLACEMENT_3D ( 'NONE', #90, #143, #61 ) ;
#70 = PERSON_AND_ORGANIZATION_ROLE ( 'classification_officer' ) ;
#71 = APPROVAL_STATUS ( 'not_yet_approved' ) ;
#72 = FACE_OUTER_BOUND ( 'NONE', #175, .T. ) ;
#73 = CC_DESIGN_DATE_AND_TIME_ASSIGNMENT ( #138, #83, ( #93 ) ) ;
#74 = APPROVAL_DATE_TIME ( #153, #164 ) ;
#75 = DATE_AND_TIME ( #29, #127 ) ;
#76 = PERSON_AND_ORGANIZATION ( #122, #50 ) ;
#77 = DIRECTION ( 'NONE',  ( 1.000000000000000000, 0.0000000000000000000, 0.0000000000000000000 ) ) ;
#78 = CC_DESIGN_SECURITY_CLASSIFICATION ( #93, ( #121 ) ) ;
#79 = DIRECTION ( 'NONE',  ( 0.0000000000000000000, 0.0000000000000000000, 1.000000000000000000 ) ) ;
#80 = CALENDAR_DATE ( 2017, 31, 1 ) ;
#81 = DIRECTION ( 'NONE',  ( 1.000000000000000000, 0.0000000000000000000, -0.0000000000000000000 ) ) ;
#82 = PERSON_AND_ORGANIZATION_ROLE ( 'design_supplier' ) ;
#83 = DATE_TIME_ROLE ( 'classification_date' ) ;
#84 = CC_DESIGN_PERSON_AND_ORGANIZATION_ASSIGNMENT ( #15, #174, ( #123 ) ) ;
#85 = CYLINDRICAL_SURFACE ( 'NONE', #36, 6.249999999999998200 ) ;
#86 = MANIFOLD_SOLID_BREP ( 'Extrude1', #125 ) ;
#87 = VERTEX_POINT ( 'NONE', #105 ) ;
#88 = EDGE_CURVE ( 'NONE', #87, #98, #24, .T. ) ;
#89 = PERSON_AND_ORGANIZATION ( #122, #50 ) ;
#90 = CARTESIAN_POINT ( 'NONE',  ( 0.0000000000000000000, 0.0000000000000000000, -3.000000000000000000 ) ) ;
#91 = CARTESIAN_POINT ( 'NONE',  ( 0.0000000000000000000, 0.0000000000000000000, 0.0000000000000000000 ) ) ;
#92 = CARTESIAN_POINT ( 'NONE',  ( 0.0000000000000000000, 0.0000000000000000000, -3.000000000000000000 ) ) ;
#93 = SECURITY_CLASSIFICATION ( '', '', #163 ) ;
#94 = CARTESIAN_POINT ( 'NONE',  ( -6.249999999999998200, 7.654042494670955600E-016, 0.0000000000000000000 ) ) ;
#95 = LINE ( 'NONE', #96, #156 ) ;
#96 = CARTESIAN_POINT ( 'NONE',  ( 6.249999999999998200, 0.0000000000000000000, -3.000000000000000000 ) ) ;
#97 = APPROVAL_ROLE ( '' ) ;
#98 = VERTEX_POINT ( 'NONE', #32 ) ;
#99 = CC_DESIGN_DATE_AND_TIME_ASSIGNMENT ( #45, #37, ( #135 ) ) ;
#100 = ADVANCED_FACE ( 'NONE', ( #172 ), #42, .T. ) ;
#101 = ORIENTED_EDGE ( 'NONE', *, *, #106, .T. ) ;
#102 = UNCERTAINTY_MEASURE_WITH_UNIT (LENGTH_MEASURE( 1.000000000000000100E-005 ), #115, 'distance_accuracy_value', 'NONE');
#103 = CC_DESIGN_PERSON_AND_ORGANIZATION_ASSIGNMENT ( #169, #173, ( #121 ) ) ;
#104 = DATE_AND_TIME ( #119, #52 ) ;
#105 = CARTESIAN_POINT ( 'NONE',  ( 6.249999999999998200, 0.0000000000000000000, -3.000000000000000000 ) ) ;
#106 = EDGE_CURVE ( 'NONE', #98, #87, #67, .T. ) ;
#107 = CARTESIAN_POINT ( 'NONE',  ( 6.249999999999998200, 0.0000000000000000000, 0.0000000000000000000 ) ) ;
#108 = APPROVAL_PERSON_ORGANIZATION ( #140, #144, #54 ) ;
#109 = APPROVAL_STATUS ( 'not_yet_approved' ) ;
#110 = VERTEX_POINT ( 'NONE', #94 ) ;
#111 = CIRCLE ( 'NONE', #39, 6.249999999999998200 ) ;
#112 = PRODUCT_RELATED_PRODUCT_CATEGORY ( 'detail', '', ( #123 ) ) ;
#113 = CARTESIAN_POINT ( 'NONE',  ( 0.0000000000000000000, 0.0000000000000000000, 0.0000000000000000000 ) ) ;
#114 = DIRECTION ( 'NONE',  ( 0.0000000000000000000, 0.0000000000000000000, 1.000000000000000000 ) ) ;
#115 =( LENGTH_UNIT ( ) NAMED_UNIT ( * ) SI_UNIT ( .MILLI., .METRE. ) );
#116 = APPROVAL_DATE_TIME ( #104, #126 ) ;
#117 = APPLICATION_CONTEXT ( 'configuration controlled 3d designs of mechanical parts and assemblies' ) ;
#118 = APPROVAL_PERSON_ORGANIZATION ( #89, #164, #149 ) ;
#119 = CALENDAR_DATE ( 2017, 31, 1 ) ;
#120 = AXIS2_PLACEMENT_3D ( 'NONE', #7, #10, #160 ) ;
#121 = PRODUCT_DEFINITION_FORMATION_WITH_SPECIFIED_SOURCE ( 'ANY', '', #123, .NOT_KNOWN. ) ;
#122 = PERSON ( 'UNSPECIFIED', 'UNSPECIFIED', 'UNSPECIFIED', ('UNSPECIFIED'), ('UNSPECIFIED'), ('UNSPECIFIED') ) ;
#123 = PRODUCT ( 'Web Model 45658', 'Web Model 45658', '', ( #132 ) ) ;
#124 = PERSON_AND_ORGANIZATION ( #122, #50 ) ;
#125 = CLOSED_SHELL ( 'NONE', ( #100, #44, #5, #59 ) ) ;
#126 = APPROVAL ( #133, 'UNSPECIFIED' ) ;
#127 = LOCAL_TIME ( 10, 18, 29.00000000000000000, #18 ) ;
#128 = CARTESIAN_POINT ( 'NONE',  ( -6.249999999999998200, 7.654042494670955600E-016, -3.000000000000000000 ) ) ;
#129 = APPROVAL_PERSON_ORGANIZATION ( #76, #126, #97 ) ;
#130 = EDGE_CURVE ( 'NONE', #98, #110, #17, .T. ) ;
#131 = CARTESIAN_POINT ( 'NONE',  ( 0.0000000000000000000, 0.0000000000000000000, -3.000000000000000000 ) ) ;
#132 = MECHANICAL_CONTEXT ( 'NONE', #171, 'mechanical' ) ;
#133 = APPROVAL_STATUS ( 'not_yet_approved' ) ;
#134 = APPLICATION_PROTOCOL_DEFINITION ( 'international standard', 'config_control_design', 1994, #117 ) ;
#135 = PRODUCT_DEFINITION ( 'UNKNOWN', '', #121, #155 ) ;
#136 = CIRCLE ( 'NONE', #6, 6.249999999999998200 ) ;
#137 = EDGE_LOOP ( 'NONE', ( #3, #101, #19, #30 ) ) ;
#138 = DATE_AND_TIME ( #1, #147 ) ;
#139 = COORDINATED_UNIVERSAL_TIME_OFFSET ( 5, 0, .BEHIND. ) ;
#140 = PERSON_AND_ORGANIZATION ( #122, #50 ) ;
#141 = ADVANCED_BREP_SHAPE_REPRESENTATION ( 'Web Model 45658', ( #86, #48 ), #31 ) ;
#142 = ORIENTED_EDGE ( 'NONE', *, *, #106, .F. ) ;
#143 = DIRECTION ( 'NONE',  ( 0.0000000000000000000, 0.0000000000000000000, 1.000000000000000000 ) ) ;
#144 = APPROVAL ( #71, 'UNSPECIFIED' ) ;
#145 = PLANE ( 'NONE',  #120 ) ;
#146 = DIRECTION ( 'NONE',  ( 0.0000000000000000000, 0.0000000000000000000, 1.000000000000000000 ) ) ;
#147 = LOCAL_TIME ( 10, 18, 29.00000000000000000, #65 ) ;
#148 = PLANE ( 'NONE',  #27 ) ;
#149 = APPROVAL_ROLE ( '' ) ;
#150 = EDGE_LOOP ( 'NONE', ( #58, #40, #9, #47 ) ) ;
#151 = VECTOR ( 'NONE', #35, 1000.000000000000000 ) ;
#152 = EDGE_CURVE ( 'NONE', #28, #110, #136, .T. ) ;
#153 = DATE_AND_TIME ( #80, #13 ) ;
#154 = COORDINATED_UNIVERSAL_TIME_OFFSET ( 5, 0, .BEHIND. ) ;
#155 = DESIGN_CONTEXT ( 'detailed design', #117, 'design' ) ;
#156 = VECTOR ( 'NONE', #11, 1000.000000000000000 ) ;
#157 =( NAMED_UNIT ( * ) PLANE_ANGLE_UNIT ( ) SI_UNIT ( $, .RADIAN. ) );
#158 = CARTESIAN_POINT ( 'NONE',  ( 0.0000000000000000000, 0.0000000000000000000, 0.0000000000000000000 ) ) ;
#159 = CC_DESIGN_APPROVAL ( #126, ( #93 ) ) ;
#160 = DIRECTION ( 'NONE',  ( 1.000000000000000000, 0.0000000000000000000, -0.0000000000000000000 ) ) ;
#161 = DIRECTION ( 'NONE',  ( 0.0000000000000000000, 0.0000000000000000000, 1.000000000000000000 ) ) ;
#162 = APPLICATION_PROTOCOL_DEFINITION ( 'international standard', 'config_control_design', 1994, #171 ) ;
#163 = SECURITY_CLASSIFICATION_LEVEL ( 'unclassified' ) ;
#164 = APPROVAL ( #109, 'UNSPECIFIED' ) ;
#165 = CC_DESIGN_PERSON_AND_ORGANIZATION_ASSIGNMENT ( #14, #53, ( #135 ) ) ;
#166 = AXIS2_PLACEMENT_3D ( 'NONE', #170, #161, #77 ) ;
#167 = FACE_OUTER_BOUND ( 'NONE', #60, .T. ) ;
#168 = FACE_OUTER_BOUND ( 'NONE', #137, .T. ) ;
#169 = PERSON_AND_ORGANIZATION ( #122, #50 ) ;
#170 = CARTESIAN_POINT ( 'NONE',  ( 0.0000000000000000000, 0.0000000000000000000, -3.000000000000000000 ) ) ;
#171 = APPLICATION_CONTEXT ( 'configuration controlled 3d designs of mechanical parts and assemblies' ) ;
#172 = FACE_OUTER_BOUND ( 'NONE', #150, .T. ) ;
#173 = PERSON_AND_ORGANIZATION_ROLE ( 'creator' ) ;
#174 = PERSON_AND_ORGANIZATION_ROLE ( 'design_owner' ) ;
#175 = EDGE_LOOP ( 'NONE', ( #25, #4 ) ) ;
ENDSEC;
END-ISO-10303-21;
