ISO-10303-21;
HEADER;
FILE_DESCRIPTION (( 'STEP AP214' ),
    '1' );
FILE_NAME ('19077-E0W.STEP',
    '2009-12-21T17:09:16',
    ( ' ' ),
    ( ' ' ),
    'SwSTEP 2.0',
    'SolidWorks 2009',
    '' );
FILE_SCHEMA (( 'AUTOMOTIVE_DESIGN' ));
ENDSEC;

DATA;
#1 = AXIS2_PLACEMENT_3D ( 'NONE', #2, #11, #3 ) ;
#2 = CARTESIAN_POINT ( 'NONE',  ( 0.0000000000000000000, 0.0000000000000000000, 0.0000000000000000000 ) ) ;
#3 = DIRECTION ( 'NONE',  ( 1.000000000000000000, 0.0000000000000000000, 0.0000000000000000000 ) ) ;
#4 = SHAPE_DEFINITION_REPRESENTATION ( #5, #76 ) ;
#5 = PRODUCT_DEFINITION_SHAPE ( 'NONE', 'NONE',  #12 ) ;
#6 = PRODUCT_RELATED_PRODUCT_CATEGORY ( 'part', '', ( #16 ) ) ;
#7 = PRODUCT_DEFINITION_FORMATION_WITH_SPECIFIED_SOURCE ( 'ANY', '', #16, .NOT_KNOWN. ) ;
#8 = PRODUCT_CONTEXT ( 'NONE', #10, 'mechanical' ) ;
#9 = APPLICATION_PROTOCOL_DEFINITION ( 'draft international standard', 'automotive_design', 1998, #10 ) ;
#10 = APPLICATION_CONTEXT ( 'automotive_design' ) ;
#11 = DIRECTION ( 'NONE',  ( 0.0000000000000000000, 0.0000000000000000000, 1.000000000000000000 ) ) ;
#12 = PRODUCT_DEFINITION ( 'UNKNOWN', '', #7, #13 ) ;
#13 = PRODUCT_DEFINITION_CONTEXT ( 'detailed design', #15, 'design' ) ;
#14 = APPLICATION_PROTOCOL_DEFINITION ( 'draft international standard', 'automotive_design', 1998, #15 ) ;
#15 = APPLICATION_CONTEXT ( 'automotive_design' ) ;
#16 = PRODUCT ( '19077-E0W', '19077-E0W', '', ( #8 ) ) ;
#17 = MANIFOLD_SOLID_BREP ( 'NONE', #38 ) ;
#18 = EDGE_CURVE ( 'NONE', #19, #20, #125, .T. ) ;
#19 = VERTEX_POINT ( 'NONE', #121 ) ;
#20 = VERTEX_POINT ( 'NONE', #120 ) ;
#21 = VERTEX_POINT ( 'NONE', #119 ) ;
#22 = VERTEX_POINT ( 'NONE', #118 ) ;
#23 = EDGE_LOOP ( 'NONE', ( #64, #30, #28, #55 ) ) ;
#24 = ORIENTED_EDGE ( 'NONE', *, *, #42, .T. ) ;
#25 = VERTEX_POINT ( 'NONE', #117 ) ;
#26 = ORIENTED_EDGE ( 'NONE', *, *, #31, .F. ) ;
#27 = VERTEX_POINT ( 'NONE', #116 ) ;
#28 = ORIENTED_EDGE ( 'NONE', *, *, #63, .T. ) ;
#29 = EDGE_CURVE ( 'NONE', #25, #22, #235, .T. ) ;
#30 = ORIENTED_EDGE ( 'NONE', *, *, #31, .T. ) ;
#31 = EDGE_CURVE ( 'NONE', #25, #27, #230, .T. ) ;
#32 = EDGE_CURVE ( 'NONE', #22, #20, #226, .T. ) ;
#33 = EDGE_CURVE ( 'NONE', #40, #21, #220, .T. ) ;
#34 = ADVANCED_FACE ( 'NONE', ( #216 ), #138, .F. ) ;
#35 = ORIENTED_EDGE ( 'NONE', *, *, #33, .T. ) ;
#36 = ORIENTED_EDGE ( 'NONE', *, *, #63, .F. ) ;
#37 = ORIENTED_EDGE ( 'NONE', *, *, #60, .F. ) ;
#38 = CLOSED_SHELL ( 'NONE', ( #41, #34, #65, #56, #49 ) ) ;
#39 = ORIENTED_EDGE ( 'NONE', *, *, #18, .T. ) ;
#40 = VERTEX_POINT ( 'NONE', #258 ) ;
#41 = ADVANCED_FACE ( 'NONE', ( #254 ), #237, .T. ) ;
#42 = EDGE_CURVE ( 'NONE', #40, #19, #203, .T. ) ;
#43 = EDGE_LOOP ( 'NONE', ( #24, #39, #44, #45, #47 ) ) ;
#44 = ORIENTED_EDGE ( 'NONE', *, *, #32, .F. ) ;
#45 = ORIENTED_EDGE ( 'NONE', *, *, #46, .F. ) ;
#46 = EDGE_CURVE ( 'NONE', #21, #22, #194, .T. ) ;
#47 = ORIENTED_EDGE ( 'NONE', *, *, #33, .F. ) ;
#48 = ORIENTED_EDGE ( 'NONE', *, *, #18, .F. ) ;
#49 = ADVANCED_FACE ( 'NONE', ( #189 ), #114, .T. ) ;
#50 = EDGE_LOOP ( 'NONE', ( #48, #51, #35, #36, #37 ) ) ;
#51 = ORIENTED_EDGE ( 'NONE', *, *, #53, .T. ) ;
#52 = ORIENTED_EDGE ( 'NONE', *, *, #53, .F. ) ;
#53 = EDGE_CURVE ( 'NONE', #19, #40, #108, .T. ) ;
#54 = EDGE_LOOP ( 'NONE', ( #26, #62, #61, #59 ) ) ;
#55 = ORIENTED_EDGE ( 'NONE', *, *, #46, .T. ) ;
#56 = ADVANCED_FACE ( 'NONE', ( #103 ), #88, .F. ) ;
#57 = ORIENTED_EDGE ( 'NONE', *, *, #42, .F. ) ;
#58 = EDGE_LOOP ( 'NONE', ( #57, #52 ) ) ;
#59 = ORIENTED_EDGE ( 'NONE', *, *, #60, .T. ) ;
#60 = EDGE_CURVE ( 'NONE', #20, #27, #170, .T. ) ;
#61 = ORIENTED_EDGE ( 'NONE', *, *, #32, .T. ) ;
#62 = ORIENTED_EDGE ( 'NONE', *, *, #29, .T. ) ;
#63 = EDGE_CURVE ( 'NONE', #27, #21, #164, .T. ) ;
#64 = ORIENTED_EDGE ( 'NONE', *, *, #29, .F. ) ;
#65 = ADVANCED_FACE ( 'NONE', ( #159 ), #86, .F. ) ;
#66 = MECHANICAL_DESIGN_GEOMETRIC_PRESENTATION_REPRESENTATION (  '', ( #68 ), #141 ) ;
#67 = PRESENTATION_LAYER_ASSIGNMENT (  '', '', ( #68 ) ) ;
#68 = STYLED_ITEM ( 'NONE', ( #69 ), #76 ) ;
#69 = PRESENTATION_STYLE_ASSIGNMENT (( #70 ) ) ;
#70 = SURFACE_STYLE_USAGE ( .BOTH. , #71 ) ;
#71 = SURFACE_SIDE_STYLE ('',( #72 ) ) ;
#72 = SURFACE_STYLE_FILL_AREA ( #73 ) ;
#73 = FILL_AREA_STYLE ('',( #74 ) ) ;
#74 = FILL_AREA_STYLE_COLOUR ( '', #75 ) ;
#75 = COLOUR_RGB ( '',0.7960784313725489700, 0.8235294117647058400, 0.9372549019607843100 ) ;
#76 = ADVANCED_BREP_SHAPE_REPRESENTATION ( '19077-E0W', ( #17, #1 ), #77 ) ;
#77 =( GEOMETRIC_REPRESENTATION_CONTEXT ( 3 ) GLOBAL_UNCERTAINTY_ASSIGNED_CONTEXT ( ( #78 ) ) GLOBAL_UNIT_ASSIGNED_CONTEXT ( ( #81, #80, #79 ) ) REPRESENTATION_CONTEXT ( 'NONE', 'WORKASPACE' ) );
#78 = UNCERTAINTY_MEASURE_WITH_UNIT (LENGTH_MEASURE( 1.000000000000000100E-005 ), #81, 'distance_accuracy_value', 'NONE');
#79 =( NAMED_UNIT ( * ) SI_UNIT ( $, .STERADIAN. ) SOLID_ANGLE_UNIT ( ) );
#80 =( NAMED_UNIT ( * ) PLANE_ANGLE_UNIT ( ) SI_UNIT ( $, .RADIAN. ) );
#81 =( LENGTH_UNIT ( ) NAMED_UNIT ( * ) SI_UNIT ( .MILLI., .METRE. ) );
#82 = DIRECTION ( 'NONE',  ( 0.0000000000000000000, 1.000000000000000000, 0.0000000000000000000 ) ) ;
#83 = DIRECTION ( 'NONE',  ( -1.000000000000000000, 0.0000000000000000000, 0.0000000000000000000 ) ) ;
#84 = CARTESIAN_POINT ( 'NONE',  ( 0.0000000000000000000, 0.0000000000000000000, 25.82764445464853900 ) ) ;
#85 = AXIS2_PLACEMENT_3D ( 'NONE', #84, #83, #82 ) ;
#86 = SPHERICAL_SURFACE ( 'NONE', #85, 25.69999999999999900 ) ;
#87 =( GEOMETRIC_REPRESENTATION_CONTEXT ( 3 ) GLOBAL_UNCERTAINTY_ASSIGNED_CONTEXT ( ( #146 ) ) GLOBAL_UNIT_ASSIGNED_CONTEXT ( ( #149, #148, #147 ) ) REPRESENTATION_CONTEXT ( 'NONE', 'WORKASPACE' ) );
#88 = PLANE ( 'NONE',  #174 ) ;
#89 =( GEOMETRIC_REPRESENTATION_CONTEXT ( 3 ) GLOBAL_UNCERTAINTY_ASSIGNED_CONTEXT ( ( #90 ) ) GLOBAL_UNIT_ASSIGNED_CONTEXT ( ( #93, #92, #91 ) ) REPRESENTATION_CONTEXT ( 'NONE', 'WORKASPACE' ) );
#90 = UNCERTAINTY_MEASURE_WITH_UNIT (LENGTH_MEASURE( 1.000000000000000100E-005 ), #93, 'distance_accuracy_value', 'NONE');
#91 =( NAMED_UNIT ( * ) SI_UNIT ( $, .STERADIAN. ) SOLID_ANGLE_UNIT ( ) );
#92 =( NAMED_UNIT ( * ) PLANE_ANGLE_UNIT ( ) SI_UNIT ( $, .RADIAN. ) );
#93 =( LENGTH_UNIT ( ) NAMED_UNIT ( * ) SI_UNIT ( .MILLI., .METRE. ) );
#94 = MECHANICAL_DESIGN_GEOMETRIC_PRESENTATION_REPRESENTATION (  '', ( #96 ), #89 ) ;
#95 = PRESENTATION_LAYER_ASSIGNMENT (  '', '', ( #96 ) ) ;
#96 = STYLED_ITEM ( 'NONE', ( #97 ), #56 ) ;
#97 = PRESENTATION_STYLE_ASSIGNMENT (( #98 ) ) ;
#98 = SURFACE_STYLE_USAGE ( .BOTH. , #99 ) ;
#99 = SURFACE_SIDE_STYLE ('',( #100 ) ) ;
#100 = SURFACE_STYLE_FILL_AREA ( #101 ) ;
#101 = FILL_AREA_STYLE ('',( #109 ) ) ;
#102 = COLOUR_RGB ( '',0.9568627450980391500, 0.9490196078431372100, 0.9607843137254902200 ) ;
#103 = FACE_OUTER_BOUND ( 'NONE', #58, .T. ) ;
#104 = DIRECTION ( 'NONE',  ( 1.000000000000000000, 0.0000000000000000000, 0.0000000000000000000 ) ) ;
#105 = DIRECTION ( 'NONE',  ( -0.0000000000000000000, -0.0000000000000000000, 1.000000000000000000 ) ) ;
#106 = CARTESIAN_POINT ( 'NONE',  ( 0.0000000000000000000, 0.0000000000000000000, -3.372355545351465100 ) ) ;
#107 = AXIS2_PLACEMENT_3D ( 'NONE', #106, #105, #104 ) ;
#108 = CIRCLE ( 'NONE', #107, 12.50000000000000000 ) ;
#109 = FILL_AREA_STYLE_COLOUR ( '', #102 ) ;
#110 = DIRECTION ( 'NONE',  ( 1.000000000000000000, 0.0000000000000000000, 0.0000000000000000000 ) ) ;
#111 = DIRECTION ( 'NONE',  ( -0.0000000000000000000, -0.0000000000000000000, 1.000000000000000000 ) ) ;
#112 = CARTESIAN_POINT ( 'NONE',  ( 0.0000000000000000000, 0.0000000000000000000, 7.394797725077859600 ) ) ;
#113 = AXIS2_PLACEMENT_3D ( 'NONE', #112, #111, #110 ) ;
#114 = CYLINDRICAL_SURFACE ( 'NONE', #113, 12.50000000000000000 ) ;
#115 = COLOUR_RGB ( '',0.7960784313725489700, 0.8235294117647058400, 0.9372549019607843100 ) ;
#116 = CARTESIAN_POINT ( 'NONE',  ( -1.530757942277971400E-015, -12.49999999999999800, 3.372355545351465500 ) ) ;
#117 = CARTESIAN_POINT ( 'NONE',  ( 0.0000000000000000000, 1.573619164661754900E-015, 0.1276444546485372400 ) ) ;
#118 = CARTESIAN_POINT ( 'NONE',  ( 0.0000000000000000000, 12.49999999999999800, 3.372355545351465500 ) ) ;
#119 = CARTESIAN_POINT ( 'NONE',  ( 12.50000000000000000, 0.0000000000000000000, 3.372355545351465100 ) ) ;
#120 = CARTESIAN_POINT ( 'NONE',  ( -12.50000000000000000, 1.530757942277971600E-015, 3.372355545351465100 ) ) ;
#121 = CARTESIAN_POINT ( 'NONE',  ( -12.50000000000000000, 1.530757942277971600E-015, -3.372355545351465100 ) ) ;
#122 = DIRECTION ( 'NONE',  ( -0.0000000000000000000, -0.0000000000000000000, 1.000000000000000000 ) ) ;
#123 = VECTOR ( 'NONE', #122, 1000.000000000000000 ) ;
#124 = CARTESIAN_POINT ( 'NONE',  ( -12.50000000000000000, 1.530757942277971600E-015, 7.394797725077859600 ) ) ;
#125 = LINE ( 'NONE', #124, #123 ) ;
#126 =( GEOMETRIC_REPRESENTATION_CONTEXT ( 3 ) GLOBAL_UNCERTAINTY_ASSIGNED_CONTEXT ( ( #127 ) ) GLOBAL_UNIT_ASSIGNED_CONTEXT ( ( #130, #129, #128 ) ) REPRESENTATION_CONTEXT ( 'NONE', 'WORKASPACE' ) );
#127 = UNCERTAINTY_MEASURE_WITH_UNIT (LENGTH_MEASURE( 1.000000000000000100E-005 ), #130, 'distance_accuracy_value', 'NONE');
#128 =( NAMED_UNIT ( * ) SI_UNIT ( $, .STERADIAN. ) SOLID_ANGLE_UNIT ( ) );
#129 =( NAMED_UNIT ( * ) PLANE_ANGLE_UNIT ( ) SI_UNIT ( $, .RADIAN. ) );
#130 =( LENGTH_UNIT ( ) NAMED_UNIT ( * ) SI_UNIT ( .MILLI., .METRE. ) );
#131 = MECHANICAL_DESIGN_GEOMETRIC_PRESENTATION_REPRESENTATION (  '', ( #133 ), #126 ) ;
#132 = PRESENTATION_LAYER_ASSIGNMENT (  '', '', ( #133 ) ) ;
#133 = STYLED_ITEM ( 'NONE', ( #134 ), #17 ) ;
#134 = PRESENTATION_STYLE_ASSIGNMENT (( #135 ) ) ;
#135 = SURFACE_STYLE_USAGE ( .BOTH. , #136 ) ;
#136 = SURFACE_SIDE_STYLE ('',( #259 ) ) ;
#137 = AXIS2_PLACEMENT_3D ( 'NONE', #257, #256, #255 ) ;
#138 = SPHERICAL_SURFACE ( 'NONE', #137, 25.69999999999999900 ) ;
#139 =( GEOMETRIC_REPRESENTATION_CONTEXT ( 3 ) GLOBAL_UNCERTAINTY_ASSIGNED_CONTEXT ( ( #140 ) ) GLOBAL_UNIT_ASSIGNED_CONTEXT ( ( #206, #205, #204 ) ) REPRESENTATION_CONTEXT ( 'NONE', 'WORKASPACE' ) );
#140 = UNCERTAINTY_MEASURE_WITH_UNIT (LENGTH_MEASURE( 1.000000000000000100E-005 ), #206, 'distance_accuracy_value', 'NONE');
#141 =( GEOMETRIC_REPRESENTATION_CONTEXT ( 3 ) GLOBAL_UNCERTAINTY_ASSIGNED_CONTEXT ( ( #142 ) ) GLOBAL_UNIT_ASSIGNED_CONTEXT ( ( #145, #144, #143 ) ) REPRESENTATION_CONTEXT ( 'NONE', 'WORKASPACE' ) );
#142 = UNCERTAINTY_MEASURE_WITH_UNIT (LENGTH_MEASURE( 1.000000000000000100E-005 ), #145, 'distance_accuracy_value', 'NONE');
#143 =( NAMED_UNIT ( * ) SI_UNIT ( $, .STERADIAN. ) SOLID_ANGLE_UNIT ( ) );
#144 =( NAMED_UNIT ( * ) PLANE_ANGLE_UNIT ( ) SI_UNIT ( $, .RADIAN. ) );
#145 =( LENGTH_UNIT ( ) NAMED_UNIT ( * ) SI_UNIT ( .MILLI., .METRE. ) );
#146 = UNCERTAINTY_MEASURE_WITH_UNIT (LENGTH_MEASURE( 1.000000000000000100E-005 ), #149, 'distance_accuracy_value', 'NONE');
#147 =( NAMED_UNIT ( * ) SI_UNIT ( $, .STERADIAN. ) SOLID_ANGLE_UNIT ( ) );
#148 =( NAMED_UNIT ( * ) PLANE_ANGLE_UNIT ( ) SI_UNIT ( $, .RADIAN. ) );
#149 =( LENGTH_UNIT ( ) NAMED_UNIT ( * ) SI_UNIT ( .MILLI., .METRE. ) );
#150 = MECHANICAL_DESIGN_GEOMETRIC_PRESENTATION_REPRESENTATION (  '', ( #152 ), #87 ) ;
#151 = PRESENTATION_LAYER_ASSIGNMENT (  '', '', ( #152 ) ) ;
#152 = STYLED_ITEM ( 'NONE', ( #153 ), #65 ) ;
#153 = PRESENTATION_STYLE_ASSIGNMENT (( #154 ) ) ;
#154 = SURFACE_STYLE_USAGE ( .BOTH. , #155 ) ;
#155 = SURFACE_SIDE_STYLE ('',( #156 ) ) ;
#156 = SURFACE_STYLE_FILL_AREA ( #157 ) ;
#157 = FILL_AREA_STYLE ('',( #165 ) ) ;
#158 = COLOUR_RGB ( '',0.9568627450980391500, 0.9490196078431372100, 0.9607843137254902200 ) ;
#159 = FACE_OUTER_BOUND ( 'NONE', #54, .T. ) ;
#160 = DIRECTION ( 'NONE',  ( 1.000000000000000000, 0.0000000000000000000, 0.0000000000000000000 ) ) ;
#161 = DIRECTION ( 'NONE',  ( -0.0000000000000000000, -0.0000000000000000000, 1.000000000000000000 ) ) ;
#162 = CARTESIAN_POINT ( 'NONE',  ( 0.0000000000000000000, 0.0000000000000000000, 3.372355545351465100 ) ) ;
#163 = AXIS2_PLACEMENT_3D ( 'NONE', #162, #161, #160 ) ;
#164 = CIRCLE ( 'NONE', #163, 12.50000000000000000 ) ;
#165 = FILL_AREA_STYLE_COLOUR ( '', #158 ) ;
#166 = DIRECTION ( 'NONE',  ( 1.000000000000000000, 0.0000000000000000000, 0.0000000000000000000 ) ) ;
#167 = DIRECTION ( 'NONE',  ( -0.0000000000000000000, -0.0000000000000000000, 1.000000000000000000 ) ) ;
#168 = CARTESIAN_POINT ( 'NONE',  ( 0.0000000000000000000, 0.0000000000000000000, 3.372355545351465100 ) ) ;
#169 = AXIS2_PLACEMENT_3D ( 'NONE', #168, #167, #166 ) ;
#170 = CIRCLE ( 'NONE', #169, 12.50000000000000000 ) ;
#171 = DIRECTION ( 'NONE',  ( 1.000000000000000000, 0.0000000000000000000, 0.0000000000000000000 ) ) ;
#172 = DIRECTION ( 'NONE',  ( 0.0000000000000000000, -0.0000000000000000000, 1.000000000000000000 ) ) ;
#173 = CARTESIAN_POINT ( 'NONE',  ( 0.0000000000000000000, 6.429395695523603200E-016, -3.372355545351465100 ) ) ;
#174 = AXIS2_PLACEMENT_3D ( 'NONE', #173, #172, #171 ) ;
#175 =( GEOMETRIC_REPRESENTATION_CONTEXT ( 3 ) GLOBAL_UNCERTAINTY_ASSIGNED_CONTEXT ( ( #176 ) ) GLOBAL_UNIT_ASSIGNED_CONTEXT ( ( #179, #178, #177 ) ) REPRESENTATION_CONTEXT ( 'NONE', 'WORKASPACE' ) );
#176 = UNCERTAINTY_MEASURE_WITH_UNIT (LENGTH_MEASURE( 1.000000000000000100E-005 ), #179, 'distance_accuracy_value', 'NONE');
#177 =( NAMED_UNIT ( * ) SI_UNIT ( $, .STERADIAN. ) SOLID_ANGLE_UNIT ( ) );
#178 =( NAMED_UNIT ( * ) PLANE_ANGLE_UNIT ( ) SI_UNIT ( $, .RADIAN. ) );
#179 =( LENGTH_UNIT ( ) NAMED_UNIT ( * ) SI_UNIT ( .MILLI., .METRE. ) );
#180 = MECHANICAL_DESIGN_GEOMETRIC_PRESENTATION_REPRESENTATION (  '', ( #182 ), #175 ) ;
#181 = PRESENTATION_LAYER_ASSIGNMENT (  '', '', ( #182 ) ) ;
#182 = STYLED_ITEM ( 'NONE', ( #183 ), #49 ) ;
#183 = PRESENTATION_STYLE_ASSIGNMENT (( #184 ) ) ;
#184 = SURFACE_STYLE_USAGE ( .BOTH. , #185 ) ;
#185 = SURFACE_SIDE_STYLE ('',( #186 ) ) ;
#186 = SURFACE_STYLE_FILL_AREA ( #187 ) ;
#187 = FILL_AREA_STYLE ('',( #195 ) ) ;
#188 = COLOUR_RGB ( '',0.9568627450980391500, 0.9490196078431372100, 0.9607843137254902200 ) ;
#189 = FACE_OUTER_BOUND ( 'NONE', #50, .T. ) ;
#190 = DIRECTION ( 'NONE',  ( 1.000000000000000000, 0.0000000000000000000, 0.0000000000000000000 ) ) ;
#191 = DIRECTION ( 'NONE',  ( -0.0000000000000000000, -0.0000000000000000000, 1.000000000000000000 ) ) ;
#192 = CARTESIAN_POINT ( 'NONE',  ( 0.0000000000000000000, 0.0000000000000000000, 3.372355545351465100 ) ) ;
#193 = AXIS2_PLACEMENT_3D ( 'NONE', #192, #191, #190 ) ;
#194 = CIRCLE ( 'NONE', #193, 12.50000000000000000 ) ;
#195 = FILL_AREA_STYLE_COLOUR ( '', #188 ) ;
#196 = DIRECTION ( 'NONE',  ( 1.000000000000000000, 0.0000000000000000000, 0.0000000000000000000 ) ) ;
#197 = DIRECTION ( 'NONE',  ( -0.0000000000000000000, -0.0000000000000000000, 1.000000000000000000 ) ) ;
#198 = CARTESIAN_POINT ( 'NONE',  ( 0.0000000000000000000, 0.0000000000000000000, -3.372355545351465100 ) ) ;
#199 = AXIS2_PLACEMENT_3D ( 'NONE', #198, #197, #196 ) ;
#200 = DIRECTION ( 'NONE',  ( 1.000000000000000000, 0.0000000000000000000, 0.0000000000000000000 ) ) ;
#201 = DIRECTION ( 'NONE',  ( -0.0000000000000000000, -0.0000000000000000000, 1.000000000000000000 ) ) ;
#202 = CARTESIAN_POINT ( 'NONE',  ( 0.0000000000000000000, 0.0000000000000000000, 7.394797725077859600 ) ) ;
#203 = CIRCLE ( 'NONE', #199, 12.50000000000000000 ) ;
#204 =( NAMED_UNIT ( * ) SI_UNIT ( $, .STERADIAN. ) SOLID_ANGLE_UNIT ( ) );
#205 =( NAMED_UNIT ( * ) PLANE_ANGLE_UNIT ( ) SI_UNIT ( $, .RADIAN. ) );
#206 =( LENGTH_UNIT ( ) NAMED_UNIT ( * ) SI_UNIT ( .MILLI., .METRE. ) );
#207 = MECHANICAL_DESIGN_GEOMETRIC_PRESENTATION_REPRESENTATION (  '', ( #209 ), #139 ) ;
#208 = PRESENTATION_LAYER_ASSIGNMENT (  '', '', ( #209 ) ) ;
#209 = STYLED_ITEM ( 'NONE', ( #210 ), #34 ) ;
#210 = PRESENTATION_STYLE_ASSIGNMENT (( #211 ) ) ;
#211 = SURFACE_STYLE_USAGE ( .BOTH. , #212 ) ;
#212 = SURFACE_SIDE_STYLE ('',( #213 ) ) ;
#213 = SURFACE_STYLE_FILL_AREA ( #214 ) ;
#214 = FILL_AREA_STYLE ('',( #221 ) ) ;
#215 = COLOUR_RGB ( '',0.9568627450980391500, 0.9490196078431372100, 0.9607843137254902200 ) ;
#216 = FACE_OUTER_BOUND ( 'NONE', #23, .T. ) ;
#217 = DIRECTION ( 'NONE',  ( -0.0000000000000000000, -0.0000000000000000000, 1.000000000000000000 ) ) ;
#218 = VECTOR ( 'NONE', #217, 1000.000000000000000 ) ;
#219 = CARTESIAN_POINT ( 'NONE',  ( 12.50000000000000000, 0.0000000000000000000, 7.394797725077859600 ) ) ;
#220 = LINE ( 'NONE', #219, #218 ) ;
#221 = FILL_AREA_STYLE_COLOUR ( '', #215 ) ;
#222 = DIRECTION ( 'NONE',  ( 1.000000000000000000, 0.0000000000000000000, 0.0000000000000000000 ) ) ;
#223 = DIRECTION ( 'NONE',  ( -0.0000000000000000000, -0.0000000000000000000, 1.000000000000000000 ) ) ;
#224 = CARTESIAN_POINT ( 'NONE',  ( 0.0000000000000000000, 0.0000000000000000000, 3.372355545351465100 ) ) ;
#225 = AXIS2_PLACEMENT_3D ( 'NONE', #224, #223, #222 ) ;
#226 = CIRCLE ( 'NONE', #225, 12.50000000000000000 ) ;
#227 = DIRECTION ( 'NONE',  ( -1.224606353822377300E-016, -1.000000000000000000, 0.0000000000000000000 ) ) ;
#228 = DIRECTION ( 'NONE',  ( -1.000000000000000000, 1.224606353822377300E-016, 0.0000000000000000000 ) ) ;
#229 = AXIS2_PLACEMENT_3D ( 'NONE', #236, #228, #227 ) ;
#230 = CIRCLE ( 'NONE', #229, 25.69999999999999900 ) ;
#231 = DIRECTION ( 'NONE',  ( 0.0000000000000000000, 0.0000000000000000000, -1.000000000000000000 ) ) ;
#232 = DIRECTION ( 'NONE',  ( 1.000000000000000000, 0.0000000000000000000, 0.0000000000000000000 ) ) ;
#233 = CARTESIAN_POINT ( 'NONE',  ( 0.0000000000000000000, 0.0000000000000000000, 25.82764445464853900 ) ) ;
#234 = AXIS2_PLACEMENT_3D ( 'NONE', #233, #232, #231 ) ;
#235 = CIRCLE ( 'NONE', #234, 25.69999999999999900 ) ;
#236 = CARTESIAN_POINT ( 'NONE',  ( 0.0000000000000000000, 0.0000000000000000000, 25.82764445464853900 ) ) ;
#237 = CYLINDRICAL_SURFACE ( 'NONE', #238, 12.50000000000000000 ) ;
#238 = AXIS2_PLACEMENT_3D ( 'NONE', #202, #201, #200 ) ;
#239 =( GEOMETRIC_REPRESENTATION_CONTEXT ( 3 ) GLOBAL_UNCERTAINTY_ASSIGNED_CONTEXT ( ( #240 ) ) GLOBAL_UNIT_ASSIGNED_CONTEXT ( ( #243, #242, #241 ) ) REPRESENTATION_CONTEXT ( 'NONE', 'WORKASPACE' ) );
#240 = UNCERTAINTY_MEASURE_WITH_UNIT (LENGTH_MEASURE( 1.000000000000000100E-005 ), #243, 'distance_accuracy_value', 'NONE');
#241 =( NAMED_UNIT ( * ) SI_UNIT ( $, .STERADIAN. ) SOLID_ANGLE_UNIT ( ) );
#242 =( NAMED_UNIT ( * ) PLANE_ANGLE_UNIT ( ) SI_UNIT ( $, .RADIAN. ) );
#243 =( LENGTH_UNIT ( ) NAMED_UNIT ( * ) SI_UNIT ( .MILLI., .METRE. ) );
#244 = MECHANICAL_DESIGN_GEOMETRIC_PRESENTATION_REPRESENTATION (  '', ( #246 ), #239 ) ;
#245 = PRESENTATION_LAYER_ASSIGNMENT (  '', '', ( #246 ) ) ;
#246 = STYLED_ITEM ( 'NONE', ( #247 ), #41 ) ;
#247 = PRESENTATION_STYLE_ASSIGNMENT (( #248 ) ) ;
#248 = SURFACE_STYLE_USAGE ( .BOTH. , #249 ) ;
#249 = SURFACE_SIDE_STYLE ('',( #250 ) ) ;
#250 = SURFACE_STYLE_FILL_AREA ( #251 ) ;
#251 = FILL_AREA_STYLE ('',( #252 ) ) ;
#252 = FILL_AREA_STYLE_COLOUR ( '', #253 ) ;
#253 = COLOUR_RGB ( '',0.9568627450980391500, 0.9490196078431372100, 0.9607843137254902200 ) ;
#254 = FACE_OUTER_BOUND ( 'NONE', #43, .T. ) ;
#255 = DIRECTION ( 'NONE',  ( 0.0000000000000000000, 1.000000000000000000, 0.0000000000000000000 ) ) ;
#256 = DIRECTION ( 'NONE',  ( -1.000000000000000000, 0.0000000000000000000, 0.0000000000000000000 ) ) ;
#257 = CARTESIAN_POINT ( 'NONE',  ( 0.0000000000000000000, 0.0000000000000000000, 25.82764445464853900 ) ) ;
#258 = CARTESIAN_POINT ( 'NONE',  ( 12.50000000000000000, 0.0000000000000000000, -3.372355545351465100 ) ) ;
#259 = SURFACE_STYLE_FILL_AREA ( #260 ) ;
#260 = FILL_AREA_STYLE ('',( #261 ) ) ;
#261 = FILL_AREA_STYLE_COLOUR ( '', #115 ) ;
ENDSEC;
END-ISO-10303-21;
