ISO-10303-21;
HEADER;
FILE_DESCRIPTION (( 'STEP AP203' ),
    '1' );
FILE_NAME ('Web Model 85287_85290.step',
    '2017-05-01T20:05:36',
    ( '' ),
    ( '' ),
    'SwSTEP 2.0',
    'SolidWorks 2016',
    '' );
FILE_SCHEMA (( 'CONFIG_CONTROL_DESIGN' ));
ENDSEC;

DATA;
#1 = FACE_OUTER_BOUND ( 'NONE', #60, .T. ) ;
#2 = ORIENTED_EDGE ( 'NONE', *, *, #42, .T. ) ;
#3 = ORIENTED_EDGE ( 'NONE', *, *, #64, .T. ) ;
#4 = ORIENTED_EDGE ( 'NONE', *, *, #67, .T. ) ;
#5 = EDGE_CURVE ( 'NONE', #13, #96, #79, .T. ) ;
#6 = ADVANCED_FACE ( 'NONE', ( #70 ), #141, .F. ) ;
#7 = COORDINATED_UNIVERSAL_TIME_OFFSET ( 5, 0, .BEHIND. ) ;
#8 = ORIENTED_EDGE ( 'NONE', *, *, #64, .F. ) ;
#9 = VERTEX_POINT ( 'NONE', #58 ) ;
#10 = DIRECTION ( 'NONE',  ( -0.0000000000000000000, 0.0000000000000000000, 1.000000000000000000 ) ) ;
#11 = EDGE_LOOP ( 'NONE', ( #29, #211, #8, #166 ) ) ;
#12 = EDGE_CURVE ( 'NONE', #13, #22, #118, .T. ) ;
#13 = VERTEX_POINT ( 'NONE', #168 ) ;
#14 = VECTOR ( 'NONE', #126, 1000.000000000000000 ) ;
#15 = EDGE_LOOP ( 'NONE', ( #122, #207, #132, #125 ) ) ;
#16 = ORIENTED_EDGE ( 'NONE', *, *, #5, .T. ) ;
#17 = ORIENTED_EDGE ( 'NONE', *, *, #56, .F. ) ;
#18 = ORIENTED_EDGE ( 'NONE', *, *, #61, .T. ) ;
#19 = PRODUCT_DEFINITION_SHAPE ( 'NONE', 'NONE',  #25 ) ;
#20 = EDGE_CURVE ( 'NONE', #96, #62, #113, .T. ) ;
#21 = SHAPE_DEFINITION_REPRESENTATION ( #19, #144 ) ;
#22 = VERTEX_POINT ( 'NONE', #224 ) ;
#23 = VERTEX_POINT ( 'NONE', #151 ) ;
#24 = ORIENTED_EDGE ( 'NONE', *, *, #12, .T. ) ;
#25 = PRODUCT_DEFINITION ( 'UNKNOWN', '', #111, #200 ) ;
#26 = ORIENTED_EDGE ( 'NONE', *, *, #20, .T. ) ;
#27 = EDGE_CURVE ( 'NONE', #22, #62, #150, .T. ) ;
#28 = DIRECTION ( 'NONE',  ( 1.000000000000000000, 0.0000000000000000000, 0.0000000000000000000 ) ) ;
#29 = ORIENTED_EDGE ( 'NONE', *, *, #56, .T. ) ;
#30 = ADVANCED_FACE ( 'NONE', ( #1 ), #112, .F. ) ;
#31 = AXIS2_PLACEMENT_3D ( 'NONE', #108, #121, #92 ) ;
#32 = PERSON_AND_ORGANIZATION_ROLE ( 'creator' ) ;
#33 = EDGE_CURVE ( 'NONE', #62, #53, #235, .T. ) ;
#34 = DATE_AND_TIME ( #84, #124 ) ;
#35 = EDGE_LOOP ( 'NONE', ( #48, #160, #17, #90 ) ) ;
#36 = EDGE_CURVE ( 'NONE', #9, #53, #66, .T. ) ;
#37 = FACE_OUTER_BOUND ( 'NONE', #35, .T. ) ;
#38 = CC_DESIGN_PERSON_AND_ORGANIZATION_ASSIGNMENT ( #236, #32, ( #25 ) ) ;
#39 = PERSON_AND_ORGANIZATION ( #142, #202 ) ;
#40 = EDGE_LOOP ( 'NONE', ( #24, #2, #3, #220 ) ) ;
#41 = CARTESIAN_POINT ( 'NONE',  ( 0.0000000000000000000, 0.0000000000000000000, 1.000000000000000000 ) ) ;
#42 = EDGE_CURVE ( 'NONE', #22, #9, #109, .T. ) ;
#43 = DIRECTION ( 'NONE',  ( 1.000000000000000000, 0.0000000000000000000, 0.0000000000000000000 ) ) ;
#44 = PERSON_AND_ORGANIZATION ( #142, #202 ) ;
#45 = UNCERTAINTY_MEASURE_WITH_UNIT (LENGTH_MEASURE( 1.000000000000000100E-005 ), #221, 'distance_accuracy_value', 'NONE');
#46 = EDGE_LOOP ( 'NONE', ( #26, #217, #81, #16 ) ) ;
#47 = CARTESIAN_POINT ( 'NONE',  ( 6.349999999999999600, -6.349999999999999600, 1.000000000000000000 ) ) ;
#48 = ORIENTED_EDGE ( 'NONE', *, *, #20, .F. ) ;
#49 = DIRECTION ( 'NONE',  ( -0.0000000000000000000, 0.0000000000000000000, 1.000000000000000000 ) ) ;
#50 = VECTOR ( 'NONE', #222, 1000.000000000000000 ) ;
#51 = CC_DESIGN_PERSON_AND_ORGANIZATION_ASSIGNMENT ( #158, #103, ( #164 ) ) ;
#52 = CALENDAR_DATE ( 2017, 1, 5 ) ;
#53 = VERTEX_POINT ( 'NONE', #153 ) ;
#54 = ADVANCED_FACE ( 'NONE', ( #181 ), #201, .F. ) ;
#55 = VECTOR ( 'NONE', #213, 1000.000000000000000 ) ;
#56 = EDGE_CURVE ( 'NONE', #53, #23, #138, .T. ) ;
#57 = MECHANICAL_CONTEXT ( 'NONE', #171, 'mechanical' ) ;
#58 = CARTESIAN_POINT ( 'NONE',  ( -6.350000000000001400, 6.349999999999999600, 1.000000000000000000 ) ) ;
#59 = DATE_AND_TIME ( #105, #147 ) ;
#60 = EDGE_LOOP ( 'NONE', ( #4, #85, #170, #18 ) ) ;
#61 = EDGE_CURVE ( 'NONE', #173, #23, #187, .T. ) ;
#62 = VERTEX_POINT ( 'NONE', #234 ) ;
#63 = CARTESIAN_POINT ( 'NONE',  ( -6.349999999999999600, -6.349999999999999600, 1.000000000000000000 ) ) ;
#64 = EDGE_CURVE ( 'NONE', #9, #173, #175, .T. ) ;
#65 = CARTESIAN_POINT ( 'NONE',  ( 0.0000000000000000000, 0.0000000000000000000, -1.000000000000000000 ) ) ;
#66 = LINE ( 'NONE', #162, #145 ) ;
#67 = EDGE_CURVE ( 'NONE', #23, #96, #98, .T. ) ;
#68 = APPROVAL_DATE_TIME ( #110, #237 ) ;
#69 = CC_DESIGN_DATE_AND_TIME_ASSIGNMENT ( #59, #91, ( #25 ) ) ;
#70 = FACE_OUTER_BOUND ( 'NONE', #46, .T. ) ;
#71 = DIRECTION ( 'NONE',  ( 1.000000000000000000, 0.0000000000000000000, 0.0000000000000000000 ) ) ;
#72 =( NAMED_UNIT ( * ) SI_UNIT ( $, .STERADIAN. ) SOLID_ANGLE_UNIT ( ) );
#73 = EDGE_CURVE ( 'NONE', #173, #13, #94, .T. ) ;
#74 = VECTOR ( 'NONE', #123, 1000.000000000000000 ) ;
#75 = CARTESIAN_POINT ( 'NONE',  ( 6.349999999999999600, -6.349999999999999600, -1.000000000000000000 ) ) ;
#76 = APPROVAL_PERSON_ORGANIZATION ( #115, #237, #114 ) ;
#77 = ADVANCED_FACE ( 'NONE', ( #127 ), #129, .F. ) ;
#78 = DIRECTION ( 'NONE',  ( 0.0000000000000000000, -1.000000000000000000, 0.0000000000000000000 ) ) ;
#79 = LINE ( 'NONE', #47, #14 ) ;
#80 = PERSON_AND_ORGANIZATION_ROLE ( 'creator' ) ;
#81 = ORIENTED_EDGE ( 'NONE', *, *, #12, .F. ) ;
#82 = PLANE ( 'NONE',  #139 ) ;
#83 = CARTESIAN_POINT ( 'NONE',  ( 0.0000000000000000000, 0.0000000000000000000, 0.0000000000000000000 ) ) ;
#84 = CALENDAR_DATE ( 2017, 1, 5 ) ;
#85 = ORIENTED_EDGE ( 'NONE', *, *, #5, .F. ) ;
#86 = DIRECTION ( 'NONE',  ( 0.0000000000000000000, -0.0000000000000000000, 1.000000000000000000 ) ) ;
#87 = FACE_OUTER_BOUND ( 'NONE', #40, .T. ) ;
#88 = CC_DESIGN_APPROVAL ( #101, ( #111 ) ) ;
#89 = DATE_AND_TIME ( #131, #172 ) ;
#90 = ORIENTED_EDGE ( 'NONE', *, *, #33, .F. ) ;
#91 = DATE_TIME_ROLE ( 'creation_date' ) ;
#92 = DIRECTION ( 'NONE',  ( -1.365923996832131600E-016, 1.000000000000000000, 0.0000000000000000000 ) ) ;
#93 = ADVANCED_FACE ( 'NONE', ( #87 ), #185, .T. ) ;
#94 = LINE ( 'NONE', #167, #218 ) ;
#95 = PERSON_AND_ORGANIZATION ( #142, #202 ) ;
#96 = VERTEX_POINT ( 'NONE', #75 ) ;
#97 = DIRECTION ( 'NONE',  ( 0.0000000000000000000, -0.0000000000000000000, -1.000000000000000000 ) ) ;
#98 = LINE ( 'NONE', #179, #225 ) ;
#99 = LOCAL_TIME ( 16, 5, 36.00000000000000000, #140 ) ;
#100 = CARTESIAN_POINT ( 'NONE',  ( -6.350000000000001400, 6.349999999999999600, 1.000000000000000000 ) ) ;
#101 = APPROVAL ( #198, 'UNSPECIFIED' ) ;
#102 = DATE_TIME_ROLE ( 'classification_date' ) ;
#103 = PERSON_AND_ORGANIZATION_ROLE ( 'design_owner' ) ;
#104 = VECTOR ( 'NONE', #116, 1000.000000000000000 ) ;
#105 = CALENDAR_DATE ( 2017, 1, 5 ) ;
#106 = DIRECTION ( 'NONE',  ( 1.000000000000000000, 0.0000000000000000000, 0.0000000000000000000 ) ) ;
#107 = DIRECTION ( 'NONE',  ( 1.365923996832131600E-016, -1.000000000000000000, 0.0000000000000000000 ) ) ;
#108 = CARTESIAN_POINT ( 'NONE',  ( -6.350000000000001400, 6.349999999999999600, 1.000000000000000000 ) ) ;
#109 = LINE ( 'NONE', #100, #55 ) ;
#110 = DATE_AND_TIME ( #152, #193 ) ;
#111 = PRODUCT_DEFINITION_FORMATION_WITH_SPECIFIED_SOURCE ( 'ANY', '', #164, .NOT_KNOWN. ) ;
#112 = PLANE ( 'NONE',  #230 ) ;
#113 = LINE ( 'NONE', #149, #199 ) ;
#114 = APPROVAL_ROLE ( '' ) ;
#115 = PERSON_AND_ORGANIZATION ( #142, #202 ) ;
#116 = DIRECTION ( 'NONE',  ( 1.365923996832131600E-016, -1.000000000000000000, 0.0000000000000000000 ) ) ;
#117 = PERSON_AND_ORGANIZATION_ROLE ( 'classification_officer' ) ;
#118 = LINE ( 'NONE', #192, #74 ) ;
#119 = APPLICATION_PROTOCOL_DEFINITION ( 'international standard', 'config_control_design', 1994, #171 ) ;
#120 = CC_DESIGN_PERSON_AND_ORGANIZATION_ASSIGNMENT ( #136, #80, ( #111 ) ) ;
#121 = DIRECTION ( 'NONE',  ( 1.000000000000000000, 1.365923996832131600E-016, -0.0000000000000000000 ) ) ;
#122 = ORIENTED_EDGE ( 'NONE', *, *, #33, .T. ) ;
#123 = DIRECTION ( 'NONE',  ( -1.365923996832131600E-016, 1.000000000000000000, -0.0000000000000000000 ) ) ;
#124 = LOCAL_TIME ( 16, 5, 36.00000000000000000, #169 ) ;
#125 = ORIENTED_EDGE ( 'NONE', *, *, #27, .T. ) ;
#126 = DIRECTION ( 'NONE',  ( -0.0000000000000000000, -0.0000000000000000000, -1.000000000000000000 ) ) ;
#127 = FACE_OUTER_BOUND ( 'NONE', #11, .T. ) ;
#128 = APPROVAL_ROLE ( '' ) ;
#129 = PLANE ( 'NONE',  #31 ) ;
#130 = CC_DESIGN_PERSON_AND_ORGANIZATION_ASSIGNMENT ( #95, #148, ( #111 ) ) ;
#131 = CALENDAR_DATE ( 2017, 1, 5 ) ;
#132 = ORIENTED_EDGE ( 'NONE', *, *, #42, .F. ) ;
#133 = APPLICATION_PROTOCOL_DEFINITION ( 'international standard', 'config_control_design', 1994, #194 ) ;
#134 = SECURITY_CLASSIFICATION_LEVEL ( 'unclassified' ) ;
#135 = VECTOR ( 'NONE', #107, 1000.000000000000000 ) ;
#136 = PERSON_AND_ORGANIZATION ( #142, #202 ) ;
#137 = CARTESIAN_POINT ( 'NONE',  ( -6.350000000000001400, 6.349999999999999600, -1.000000000000000000 ) ) ;
#138 = LINE ( 'NONE', #226, #104 ) ;
#139 = AXIS2_PLACEMENT_3D ( 'NONE', #65, #49, #28 ) ;
#140 = COORDINATED_UNIVERSAL_TIME_OFFSET ( 5, 0, .BEHIND. ) ;
#141 = PLANE ( 'NONE',  #231 ) ;
#142 = PERSON ( 'UNSPECIFIED', 'UNSPECIFIED', 'UNSPECIFIED', ('UNSPECIFIED'), ('UNSPECIFIED'), ('UNSPECIFIED') ) ;
#143 = SECURITY_CLASSIFICATION ( '', '', #134 ) ;
#144 = ADVANCED_BREP_SHAPE_REPRESENTATION ( 'Web Model 85287_85290', ( #214, #215 ), #206 ) ;
#145 = VECTOR ( 'NONE', #212, 1000.000000000000000 ) ;
#146 = DIRECTION ( 'NONE',  ( -1.365923996832131600E-016, 1.000000000000000000, -0.0000000000000000000 ) ) ;
#147 = LOCAL_TIME ( 16, 5, 36.00000000000000000, #189 ) ;
#148 = PERSON_AND_ORGANIZATION_ROLE ( 'design_supplier' ) ;
#149 = CARTESIAN_POINT ( 'NONE',  ( 6.349999999999997900, 6.349999999999999600, -1.000000000000000000 ) ) ;
#150 = LINE ( 'NONE', #155, #156 ) ;
#151 = CARTESIAN_POINT ( 'NONE',  ( -6.349999999999999600, -6.349999999999999600, -1.000000000000000000 ) ) ;
#152 = CALENDAR_DATE ( 2017, 1, 5 ) ;
#153 = CARTESIAN_POINT ( 'NONE',  ( -6.350000000000001400, 6.349999999999999600, -1.000000000000000000 ) ) ;
#154 = CC_DESIGN_PERSON_AND_ORGANIZATION_ASSIGNMENT ( #44, #117, ( #143 ) ) ;
#155 = CARTESIAN_POINT ( 'NONE',  ( 6.349999999999997900, 6.349999999999999600, 1.000000000000000000 ) ) ;
#156 = VECTOR ( 'NONE', #161, 1000.000000000000000 ) ;
#157 = AXIS2_PLACEMENT_3D ( 'NONE', #197, #78, #97 ) ;
#158 = PERSON_AND_ORGANIZATION ( #142, #202 ) ;
#159 = CARTESIAN_POINT ( 'NONE',  ( -6.349999999999999600, -6.349999999999999600, 1.000000000000000000 ) ) ;
#160 = ORIENTED_EDGE ( 'NONE', *, *, #67, .F. ) ;
#161 = DIRECTION ( 'NONE',  ( -0.0000000000000000000, -0.0000000000000000000, -1.000000000000000000 ) ) ;
#162 = CARTESIAN_POINT ( 'NONE',  ( -6.350000000000001400, 6.349999999999999600, 1.000000000000000000 ) ) ;
#163 = CARTESIAN_POINT ( 'NONE',  ( 6.349999999999997900, 6.349999999999999600, 1.000000000000000000 ) ) ;
#164 = PRODUCT ( 'Web Model 85287_85290', 'Web Model 85287_85290', '', ( #57 ) ) ;
#165 = CC_DESIGN_DATE_AND_TIME_ASSIGNMENT ( #89, #102, ( #143 ) ) ;
#166 = ORIENTED_EDGE ( 'NONE', *, *, #36, .T. ) ;
#167 = CARTESIAN_POINT ( 'NONE',  ( -6.349999999999999600, -6.349999999999999600, 1.000000000000000000 ) ) ;
#168 = CARTESIAN_POINT ( 'NONE',  ( 6.349999999999999600, -6.349999999999999600, 1.000000000000000000 ) ) ;
#169 = COORDINATED_UNIVERSAL_TIME_OFFSET ( 5, 0, .BEHIND. ) ;
#170 = ORIENTED_EDGE ( 'NONE', *, *, #73, .F. ) ;
#171 = APPLICATION_CONTEXT ( 'configuration controlled 3d designs of mechanical parts and assemblies' ) ;
#172 = LOCAL_TIME ( 16, 5, 36.00000000000000000, #219 ) ;
#173 = VERTEX_POINT ( 'NONE', #63 ) ;
#174 = APPROVAL ( #233, 'UNSPECIFIED' ) ;
#175 = LINE ( 'NONE', #204, #135 ) ;
#176 = APPROVAL_DATE_TIME ( #223, #101 ) ;
#177 = DIRECTION ( 'NONE',  ( 1.000000000000000000, 0.0000000000000000000, 0.0000000000000000000 ) ) ;
#178 = DIRECTION ( 'NONE',  ( 0.0000000000000000000, 1.000000000000000000, 0.0000000000000000000 ) ) ;
#179 = CARTESIAN_POINT ( 'NONE',  ( -6.349999999999999600, -6.349999999999999600, -1.000000000000000000 ) ) ;
#180 = AXIS2_PLACEMENT_3D ( 'NONE', #41, #10, #177 ) ;
#181 = FACE_OUTER_BOUND ( 'NONE', #15, .T. ) ;
#182 = DIRECTION ( 'NONE',  ( 1.365923996832131600E-016, -1.000000000000000000, 0.0000000000000000000 ) ) ;
#183 = ADVANCED_FACE ( 'NONE', ( #37 ), #82, .F. ) ;
#184 = APPROVAL_PERSON_ORGANIZATION ( #229, #101, #205 ) ;
#185 = PLANE ( 'NONE',  #180 ) ;
#186 = CC_DESIGN_APPROVAL ( #174, ( #143 ) ) ;
#187 = LINE ( 'NONE', #191, #50 ) ;
#188 = APPROVAL_STATUS ( 'not_yet_approved' ) ;
#189 = COORDINATED_UNIVERSAL_TIME_OFFSET ( 5, 0, .BEHIND. ) ;
#190 = VECTOR ( 'NONE', #208, 1000.000000000000000 ) ;
#191 = CARTESIAN_POINT ( 'NONE',  ( -6.349999999999999600, -6.349999999999999600, 1.000000000000000000 ) ) ;
#192 = CARTESIAN_POINT ( 'NONE',  ( 6.349999999999997900, 6.349999999999999600, 1.000000000000000000 ) ) ;
#193 = LOCAL_TIME ( 16, 5, 36.00000000000000000, #7 ) ;
#194 = APPLICATION_CONTEXT ( 'configuration controlled 3d designs of mechanical parts and assemblies' ) ;
#195 = CC_DESIGN_SECURITY_CLASSIFICATION ( #143, ( #111 ) ) ;
#196 = DIRECTION ( 'NONE',  ( -1.000000000000000000, -1.365923996832131600E-016, 0.0000000000000000000 ) ) ;
#197 = CARTESIAN_POINT ( 'NONE',  ( -6.350000000000001400, 6.349999999999999600, 1.000000000000000000 ) ) ;
#198 = APPROVAL_STATUS ( 'not_yet_approved' ) ;
#199 = VECTOR ( 'NONE', #146, 1000.000000000000000 ) ;
#200 = DESIGN_CONTEXT ( 'detailed design', #194, 'design' ) ;
#201 = PLANE ( 'NONE',  #157 ) ;
#202 = ORGANIZATION ( 'UNSPECIFIED', 'UNSPECIFIED', '' ) ;
#203 = CC_DESIGN_APPROVAL ( #237, ( #25 ) ) ;
#204 = CARTESIAN_POINT ( 'NONE',  ( -6.350000000000001400, 6.349999999999999600, 1.000000000000000000 ) ) ;
#205 = APPROVAL_ROLE ( '' ) ;
#206 =( GEOMETRIC_REPRESENTATION_CONTEXT ( 3 ) GLOBAL_UNCERTAINTY_ASSIGNED_CONTEXT ( ( #45 ) ) GLOBAL_UNIT_ASSIGNED_CONTEXT ( ( #221, #228, #72 ) ) REPRESENTATION_CONTEXT ( 'NONE', 'WORKASPACE' ) );
#207 = ORIENTED_EDGE ( 'NONE', *, *, #36, .F. ) ;
#208 = DIRECTION ( 'NONE',  ( -1.000000000000000000, -0.0000000000000000000, -0.0000000000000000000 ) ) ;
#209 = PRODUCT_RELATED_PRODUCT_CATEGORY ( 'detail', '', ( #164 ) ) ;
#210 = APPROVAL_DATE_TIME ( #34, #174 ) ;
#211 = ORIENTED_EDGE ( 'NONE', *, *, #61, .F. ) ;
#212 = DIRECTION ( 'NONE',  ( -0.0000000000000000000, -0.0000000000000000000, -1.000000000000000000 ) ) ;
#213 = DIRECTION ( 'NONE',  ( -1.000000000000000000, -0.0000000000000000000, -0.0000000000000000000 ) ) ;
#214 = MANIFOLD_SOLID_BREP ( 'Boss-Extrude1', #227 ) ;
#215 = AXIS2_PLACEMENT_3D ( 'NONE', #83, #232, #106 ) ;
#216 = APPROVAL_PERSON_ORGANIZATION ( #39, #174, #128 ) ;
#217 = ORIENTED_EDGE ( 'NONE', *, *, #27, .F. ) ;
#218 = VECTOR ( 'NONE', #71, 1000.000000000000000 ) ;
#219 = COORDINATED_UNIVERSAL_TIME_OFFSET ( 5, 0, .BEHIND. ) ;
#220 = ORIENTED_EDGE ( 'NONE', *, *, #73, .T. ) ;
#221 =( LENGTH_UNIT ( ) NAMED_UNIT ( * ) SI_UNIT ( .MILLI., .METRE. ) );
#222 = DIRECTION ( 'NONE',  ( -0.0000000000000000000, -0.0000000000000000000, -1.000000000000000000 ) ) ;
#223 = DATE_AND_TIME ( #52, #99 ) ;
#224 = CARTESIAN_POINT ( 'NONE',  ( 6.349999999999997900, 6.349999999999999600, 1.000000000000000000 ) ) ;
#225 = VECTOR ( 'NONE', #43, 1000.000000000000000 ) ;
#226 = CARTESIAN_POINT ( 'NONE',  ( -6.350000000000001400, 6.349999999999999600, -1.000000000000000000 ) ) ;
#227 = CLOSED_SHELL ( 'NONE', ( #6, #54, #77, #30, #93, #183 ) ) ;
#228 =( NAMED_UNIT ( * ) PLANE_ANGLE_UNIT ( ) SI_UNIT ( $, .RADIAN. ) );
#229 = PERSON_AND_ORGANIZATION ( #142, #202 ) ;
#230 = AXIS2_PLACEMENT_3D ( 'NONE', #159, #178, #86 ) ;
#231 = AXIS2_PLACEMENT_3D ( 'NONE', #163, #196, #182 ) ;
#232 = DIRECTION ( 'NONE',  ( 0.0000000000000000000, 0.0000000000000000000, 1.000000000000000000 ) ) ;
#233 = APPROVAL_STATUS ( 'not_yet_approved' ) ;
#234 = CARTESIAN_POINT ( 'NONE',  ( 6.349999999999997900, 6.349999999999999600, -1.000000000000000000 ) ) ;
#235 = LINE ( 'NONE', #137, #190 ) ;
#236 = PERSON_AND_ORGANIZATION ( #142, #202 ) ;
#237 = APPROVAL ( #188, 'UNSPECIFIED' ) ;
ENDSEC;
END-ISO-10303-21;
