ISO-10303-21;
HEADER;
FILE_DESCRIPTION (( 'STEP AP214' ),
    '1' );
FILE_NAME ('3466-E0W.STEP',
    '2009-12-21T16:59:55',
    ( ' ' ),
    ( ' ' ),
    'SwSTEP 2.0',
    'SolidWorks 2009',
    '' );
FILE_SCHEMA (( 'AUTOMOTIVE_DESIGN' ));
ENDSEC;

DATA;
#1 = COLOUR_RGB ( '',0.9568627450980391500, 0.9490196078431372100, 0.9607843137254902200 ) ;
#2 = FILL_AREA_STYLE_COLOUR ( '', #1 ) ;
#3 = FILL_AREA_STYLE ('',( #2 ) ) ;
#4 = SURFACE_STYLE_USAGE ( .BOTH. , #5 ) ;
#5 = SURFACE_SIDE_STYLE ('',( #6 ) ) ;
#6 = SURFACE_STYLE_FILL_AREA ( #3 ) ;
#7 = PRESENTATION_STYLE_ASSIGNMENT (( #4 ) ) ;
#8 = STYLED_ITEM ( 'NONE', ( #7 ), #159 ) ;
#9 = MECHANICAL_DESIGN_GEOMETRIC_PRESENTATION_REPRESENTATION (  '', ( #8 ), #20 ) ;
#10 = PRESENTATION_LAYER_ASSIGNMENT (  '', '', ( #8 ) ) ;
#11 =( LENGTH_UNIT ( ) NAMED_UNIT ( * ) SI_UNIT ( .MILLI., .METRE. ) );
#12 =( NAMED_UNIT ( * ) PLANE_ANGLE_UNIT ( ) SI_UNIT ( $, .RADIAN. ) );
#13 = UNCERTAINTY_MEASURE_WITH_UNIT (LENGTH_MEASURE( 1.000000000000000100E-005 ), #11, 'distance_accuracy_value', 'NONE');
#14 = SPHERICAL_SURFACE ( 'NONE', #16, 100.0800000000000000 ) ;
#15 =( NAMED_UNIT ( * ) SI_UNIT ( $, .STERADIAN. ) SOLID_ANGLE_UNIT ( ) );
#16 = AXIS2_PLACEMENT_3D ( 'NONE', #18, #19, #17 ) ;
#17 = DIRECTION ( 'NONE',  ( 0.0000000000000000000, 1.000000000000000000, 0.0000000000000000000 ) ) ;
#18 = CARTESIAN_POINT ( 'NONE',  ( 0.0000000000000000000, 0.0000000000000000000, -96.95094689560868100 ) ) ;
#19 = DIRECTION ( 'NONE',  ( -1.000000000000000000, 0.0000000000000000000, 0.0000000000000000000 ) ) ;
#20 =( GEOMETRIC_REPRESENTATION_CONTEXT ( 3 ) GLOBAL_UNCERTAINTY_ASSIGNED_CONTEXT ( ( #13 ) ) GLOBAL_UNIT_ASSIGNED_CONTEXT ( ( #11, #12, #15 ) ) REPRESENTATION_CONTEXT ( 'NONE', 'WORKASPACE' ) );
#21 = DIRECTION ( 'NONE',  ( 0.0000000000000000000, 1.000000000000000000, 0.0000000000000000000 ) ) ;
#22 = DIRECTION ( 'NONE',  ( -1.000000000000000000, 0.0000000000000000000, 0.0000000000000000000 ) ) ;
#23 = SPHERICAL_SURFACE ( 'NONE', #25, 279.1200000000000000 ) ;
#24 = CARTESIAN_POINT ( 'NONE',  ( 0.0000000000000000000, 0.0000000000000000000, -281.0909468956086200 ) ) ;
#25 = AXIS2_PLACEMENT_3D ( 'NONE', #24, #22, #21 ) ;
#26 = FACE_OUTER_BOUND ( 'NONE', #161, .T. ) ;
#27 = CARTESIAN_POINT ( 'NONE',  ( 25.39999999999999900, 0.0000000000000000000, -0.1478147148780816800 ) ) ;
#28 = CARTESIAN_POINT ( 'NONE',  ( -25.39999999999999900, 3.110500138708838200E-015, -0.1478147148780816800 ) ) ;
#29 = SURFACE_SIDE_STYLE ('',( #55 ) ) ;
#30 = STYLED_ITEM ( 'NONE', ( #31 ), #163 ) ;
#31 = PRESENTATION_STYLE_ASSIGNMENT (( #32 ) ) ;
#32 = SURFACE_STYLE_USAGE ( .BOTH. , #29 ) ;
#33 =( NAMED_UNIT ( * ) SI_UNIT ( $, .STERADIAN. ) SOLID_ANGLE_UNIT ( ) );
#34 =( LENGTH_UNIT ( ) NAMED_UNIT ( * ) SI_UNIT ( .MILLI., .METRE. ) );
#35 = MECHANICAL_DESIGN_GEOMETRIC_PRESENTATION_REPRESENTATION (  '', ( #30 ), #39 ) ;
#36 = PRESENTATION_LAYER_ASSIGNMENT (  '', '', ( #30 ) ) ;
#37 =( NAMED_UNIT ( * ) PLANE_ANGLE_UNIT ( ) SI_UNIT ( $, .RADIAN. ) );
#38 = UNCERTAINTY_MEASURE_WITH_UNIT (LENGTH_MEASURE( 1.000000000000000100E-005 ), #34, 'distance_accuracy_value', 'NONE');
#39 =( GEOMETRIC_REPRESENTATION_CONTEXT ( 3 ) GLOBAL_UNCERTAINTY_ASSIGNED_CONTEXT ( ( #38 ) ) GLOBAL_UNIT_ASSIGNED_CONTEXT ( ( #34, #37, #33 ) ) REPRESENTATION_CONTEXT ( 'NONE', 'WORKASPACE' ) );
#40 = CYLINDRICAL_SURFACE ( 'NONE', #49, 25.39999999999999900 ) ;
#41 = APPLICATION_CONTEXT ( 'automotive_design' ) ;
#42 = DIRECTION ( 'NONE',  ( 1.000000000000000000, 0.0000000000000000000, 0.0000000000000000000 ) ) ;
#43 = APPLICATION_PROTOCOL_DEFINITION ( 'draft international standard', 'automotive_design', 1998, #41 ) ;
#44 = DIRECTION ( 'NONE',  ( 1.000000000000000000, 0.0000000000000000000, 0.0000000000000000000 ) ) ;
#45 = AXIS2_PLACEMENT_3D ( 'NONE', #47, #46, #44 ) ;
#46 = DIRECTION ( 'NONE',  ( -0.0000000000000000000, -0.0000000000000000000, 1.000000000000000000 ) ) ;
#47 = CARTESIAN_POINT ( 'NONE',  ( 0.0000000000000000000, 0.0000000000000000000, -3.129053104391321700 ) ) ;
#48 = DIRECTION ( 'NONE',  ( -0.0000000000000000000, -0.0000000000000000000, 1.000000000000000000 ) ) ;
#49 = AXIS2_PLACEMENT_3D ( 'NONE', #50, #48, #42 ) ;
#50 = CARTESIAN_POINT ( 'NONE',  ( 0.0000000000000000000, 0.0000000000000000000, 9.484156859232379900 ) ) ;
#51 = PRODUCT_DEFINITION ( 'UNKNOWN', '', #89, #52 ) ;
#52 = PRODUCT_DEFINITION_CONTEXT ( 'detailed design', #41, 'design' ) ;
#53 = CIRCLE ( 'NONE', #45, 25.39999999999999900 ) ;
#54 = FILL_AREA_STYLE_COLOUR ( '', #57 ) ;
#55 = SURFACE_STYLE_FILL_AREA ( #56 ) ;
#56 = FILL_AREA_STYLE ('',( #54 ) ) ;
#57 = COLOUR_RGB ( '',0.9568627450980391500, 0.9490196078431372100, 0.9607843137254902200 ) ;
#58 = FACE_OUTER_BOUND ( 'NONE', #158, .T. ) ;
#59 =( NAMED_UNIT ( * ) PLANE_ANGLE_UNIT ( ) SI_UNIT ( $, .RADIAN. ) );
#60 = DIRECTION ( 'NONE',  ( 1.000000000000000000, 0.0000000000000000000, 0.0000000000000000000 ) ) ;
#61 =( GEOMETRIC_REPRESENTATION_CONTEXT ( 3 ) GLOBAL_UNCERTAINTY_ASSIGNED_CONTEXT ( ( #86 ) ) GLOBAL_UNIT_ASSIGNED_CONTEXT ( ( #77, #84, #87 ) ) REPRESENTATION_CONTEXT ( 'NONE', 'WORKASPACE' ) );
#62 = PRESENTATION_STYLE_ASSIGNMENT (( #63 ) ) ;
#63 = SURFACE_STYLE_USAGE ( .BOTH. , #64 ) ;
#64 = SURFACE_SIDE_STYLE ('',( #65 ) ) ;
#65 = SURFACE_STYLE_FILL_AREA ( #66 ) ;
#66 = FILL_AREA_STYLE ('',( #67 ) ) ;
#67 = FILL_AREA_STYLE_COLOUR ( '', #68 ) ;
#68 = COLOUR_RGB ( '',0.7960784313725489700, 0.8235294117647058400, 0.9372549019607843100 ) ;
#69 = ADVANCED_BREP_SHAPE_REPRESENTATION ( '3466-E0W', ( #117, #76 ), #70 ) ;
#70 =( GEOMETRIC_REPRESENTATION_CONTEXT ( 3 ) GLOBAL_UNCERTAINTY_ASSIGNED_CONTEXT ( ( #82 ) ) GLOBAL_UNIT_ASSIGNED_CONTEXT ( ( #81, #59, #83 ) ) REPRESENTATION_CONTEXT ( 'NONE', 'WORKASPACE' ) );
#71 = DIRECTION ( 'NONE',  ( 0.0000000000000000000, 0.0000000000000000000, 1.000000000000000000 ) ) ;
#72 = PRODUCT ( '3466-E0W', '3466-E0W', '', ( #73 ) ) ;
#73 = PRODUCT_CONTEXT ( 'NONE', #85, 'mechanical' ) ;
#74 = APPLICATION_PROTOCOL_DEFINITION ( 'draft international standard', 'automotive_design', 1998, #85 ) ;
#75 = CARTESIAN_POINT ( 'NONE',  ( 0.0000000000000000000, 0.0000000000000000000, 0.0000000000000000000 ) ) ;
#76 = AXIS2_PLACEMENT_3D ( 'NONE', #75, #71, #60 ) ;
#77 =( LENGTH_UNIT ( ) NAMED_UNIT ( * ) SI_UNIT ( .MILLI., .METRE. ) );
#78 = MECHANICAL_DESIGN_GEOMETRIC_PRESENTATION_REPRESENTATION (  '', ( #80 ), #61 ) ;
#79 = PRESENTATION_LAYER_ASSIGNMENT (  '', '', ( #80 ) ) ;
#80 = STYLED_ITEM ( 'NONE', ( #62 ), #69 ) ;
#81 =( LENGTH_UNIT ( ) NAMED_UNIT ( * ) SI_UNIT ( .MILLI., .METRE. ) );
#82 = UNCERTAINTY_MEASURE_WITH_UNIT (LENGTH_MEASURE( 1.000000000000000100E-005 ), #81, 'distance_accuracy_value', 'NONE');
#83 =( NAMED_UNIT ( * ) SI_UNIT ( $, .STERADIAN. ) SOLID_ANGLE_UNIT ( ) );
#84 =( NAMED_UNIT ( * ) PLANE_ANGLE_UNIT ( ) SI_UNIT ( $, .RADIAN. ) );
#85 = APPLICATION_CONTEXT ( 'automotive_design' ) ;
#86 = UNCERTAINTY_MEASURE_WITH_UNIT (LENGTH_MEASURE( 1.000000000000000100E-005 ), #77, 'distance_accuracy_value', 'NONE');
#87 =( NAMED_UNIT ( * ) SI_UNIT ( $, .STERADIAN. ) SOLID_ANGLE_UNIT ( ) );
#88 = PRODUCT_DEFINITION_SHAPE ( 'NONE', 'NONE',  #51 ) ;
#89 = PRODUCT_DEFINITION_FORMATION_WITH_SPECIFIED_SOURCE ( 'ANY', '', #72, .NOT_KNOWN. ) ;
#90 = SHAPE_DEFINITION_REPRESENTATION ( #88, #69 ) ;
#91 = PRODUCT_RELATED_PRODUCT_CATEGORY ( 'part', '', ( #72 ) ) ;
#92 = EDGE_CURVE ( 'NONE', #97, #114, #194, .T. ) ;
#93 = EDGE_LOOP ( 'NONE', ( #100, #101, #111, #122, #109, #135 ) ) ;
#94 = EDGE_CURVE ( 'NONE', #134, #102, #219, .T. ) ;
#95 = ORIENTED_EDGE ( 'NONE', *, *, #96, .F. ) ;
#96 = EDGE_CURVE ( 'NONE', #97, #102, #218, .T. ) ;
#97 = VERTEX_POINT ( 'NONE', #211 ) ;
#98 = EDGE_CURVE ( 'NONE', #110, #140, #199, .T. ) ;
#99 = EDGE_CURVE ( 'NONE', #113, #97, #204, .T. ) ;
#100 = ORIENTED_EDGE ( 'NONE', *, *, #99, .T. ) ;
#101 = ORIENTED_EDGE ( 'NONE', *, *, #92, .T. ) ;
#102 = VERTEX_POINT ( 'NONE', #181 ) ;
#103 = ORIENTED_EDGE ( 'NONE', *, *, #99, .F. ) ;
#104 = ADVANCED_FACE ( 'NONE', ( #178 ), #192, .T. ) ;
#105 = ORIENTED_EDGE ( 'NONE', *, *, #94, .T. ) ;
#106 = EDGE_LOOP ( 'NONE', ( #107, #131, #108, #139 ) ) ;
#107 = ORIENTED_EDGE ( 'NONE', *, *, #136, .T. ) ;
#108 = ORIENTED_EDGE ( 'NONE', *, *, #126, .T. ) ;
#109 = ORIENTED_EDGE ( 'NONE', *, *, #132, .F. ) ;
#110 = VERTEX_POINT ( 'NONE', #235 ) ;
#111 = ORIENTED_EDGE ( 'NONE', *, *, #119, .T. ) ;
#112 = ADVANCED_FACE ( 'NONE', ( #225 ), #237, .F. ) ;
#113 = VERTEX_POINT ( 'NONE', #239 ) ;
#114 = VERTEX_POINT ( 'NONE', #238 ) ;
#115 = ADVANCED_FACE ( 'NONE', ( #241 ), #251, .T. ) ;
#116 = ORIENTED_EDGE ( 'NONE', *, *, #98, .T. ) ;
#117 = MANIFOLD_SOLID_BREP ( 'NONE', #174 ) ;
#118 =( NAMED_UNIT ( * ) PLANE_ANGLE_UNIT ( ) SI_UNIT ( $, .RADIAN. ) );
#119 = EDGE_CURVE ( 'NONE', #114, #138, #265, .T. ) ;
#120 = ORIENTED_EDGE ( 'NONE', *, *, #126, .F. ) ;
#121 = EDGE_LOOP ( 'NONE', ( #125, #105, #95, #103 ) ) ;
#122 = ORIENTED_EDGE ( 'NONE', *, *, #136, .F. ) ;
#123 = EDGE_CURVE ( 'NONE', #138, #110, #278, .T. ) ;
#124 = VERTEX_POINT ( 'NONE', #272 ) ;
#125 = ORIENTED_EDGE ( 'NONE', *, *, #129, .F. ) ;
#126 = EDGE_CURVE ( 'NONE', #110, #127, #270, .T. ) ;
#127 = VERTEX_POINT ( 'NONE', #286 ) ;
#128 = EDGE_LOOP ( 'NONE', ( #120, #116, #172, #157 ) ) ;
#129 = EDGE_CURVE ( 'NONE', #134, #113, #284, .T. ) ;
#130 = EDGE_CURVE ( 'NONE', #124, #127, #291, .T. ) ;
#131 = ORIENTED_EDGE ( 'NONE', *, *, #123, .T. ) ;
#132 = EDGE_CURVE ( 'NONE', #140, #124, #300, .T. ) ;
#133 = EDGE_CURVE ( 'NONE', #113, #140, #298, .T. ) ;
#134 = VERTEX_POINT ( 'NONE', #320 ) ;
#135 = ORIENTED_EDGE ( 'NONE', *, *, #133, .F. ) ;
#136 = EDGE_CURVE ( 'NONE', #124, #138, #318, .T. ) ;
#137 = ADVANCED_FACE ( 'NONE', ( #319 ), #14, .T. ) ;
#138 = VERTEX_POINT ( 'NONE', #28 ) ;
#139 = ORIENTED_EDGE ( 'NONE', *, *, #130, .F. ) ;
#140 = VERTEX_POINT ( 'NONE', #27 ) ;
#141 =( NAMED_UNIT ( * ) PLANE_ANGLE_UNIT ( ) SI_UNIT ( $, .RADIAN. ) );
#142 =( NAMED_UNIT ( * ) SI_UNIT ( $, .STERADIAN. ) SOLID_ANGLE_UNIT ( ) );
#143 =( NAMED_UNIT ( * ) SI_UNIT ( $, .STERADIAN. ) SOLID_ANGLE_UNIT ( ) );
#144 = CARTESIAN_POINT ( 'NONE',  ( 0.0000000000000000000, 0.0000000000000000000, -281.0909468956086200 ) ) ;
#145 =( LENGTH_UNIT ( ) NAMED_UNIT ( * ) SI_UNIT ( .MILLI., .METRE. ) );
#146 = MECHANICAL_DESIGN_GEOMETRIC_PRESENTATION_REPRESENTATION (  '', ( #153 ), #188 ) ;
#147 =( NAMED_UNIT ( * ) PLANE_ANGLE_UNIT ( ) SI_UNIT ( $, .RADIAN. ) );
#148 = DIRECTION ( 'NONE',  ( 0.0000000000000000000, 1.000000000000000000, 0.0000000000000000000 ) ) ;
#149 = PRESENTATION_LAYER_ASSIGNMENT (  '', '', ( #153 ) ) ;
#150 = DIRECTION ( 'NONE',  ( -1.000000000000000000, 0.0000000000000000000, 0.0000000000000000000 ) ) ;
#151 =( NAMED_UNIT ( * ) SI_UNIT ( $, .STERADIAN. ) SOLID_ANGLE_UNIT ( ) );
#152 = UNCERTAINTY_MEASURE_WITH_UNIT (LENGTH_MEASURE( 1.000000000000000100E-005 ), #145, 'distance_accuracy_value', 'NONE');
#153 = STYLED_ITEM ( 'NONE', ( #242 ), #115 ) ;
#154 = AXIS2_PLACEMENT_3D ( 'NONE', #144, #150, #148 ) ;
#155 =( GEOMETRIC_REPRESENTATION_CONTEXT ( 3 ) GLOBAL_UNCERTAINTY_ASSIGNED_CONTEXT ( ( #156 ) ) GLOBAL_UNIT_ASSIGNED_CONTEXT ( ( #177, #118, #143 ) ) REPRESENTATION_CONTEXT ( 'NONE', 'WORKASPACE' ) );
#156 = UNCERTAINTY_MEASURE_WITH_UNIT (LENGTH_MEASURE( 1.000000000000000100E-005 ), #177, 'distance_accuracy_value', 'NONE');
#157 = ORIENTED_EDGE ( 'NONE', *, *, #130, .T. ) ;
#158 = EDGE_LOOP ( 'NONE', ( #164, #169, #165, #173, #171, #160 ) ) ;
#159 = ADVANCED_FACE ( 'NONE', ( #26 ), #23, .F. ) ;
#160 = ORIENTED_EDGE ( 'NONE', *, *, #123, .F. ) ;
#161 = EDGE_LOOP ( 'NONE', ( #166, #168, #170, #162 ) ) ;
#162 = ORIENTED_EDGE ( 'NONE', *, *, #96, .T. ) ;
#163 = ADVANCED_FACE ( 'NONE', ( #58 ), #40, .T. ) ;
#164 = ORIENTED_EDGE ( 'NONE', *, *, #119, .F. ) ;
#165 = ORIENTED_EDGE ( 'NONE', *, *, #129, .T. ) ;
#166 = ORIENTED_EDGE ( 'NONE', *, *, #94, .F. ) ;
#167 = EDGE_CURVE ( 'NONE', #114, #134, #53, .T. ) ;
#168 = ORIENTED_EDGE ( 'NONE', *, *, #167, .F. ) ;
#169 = ORIENTED_EDGE ( 'NONE', *, *, #167, .T. ) ;
#170 = ORIENTED_EDGE ( 'NONE', *, *, #92, .F. ) ;
#171 = ORIENTED_EDGE ( 'NONE', *, *, #98, .F. ) ;
#172 = ORIENTED_EDGE ( 'NONE', *, *, #132, .T. ) ;
#173 = ORIENTED_EDGE ( 'NONE', *, *, #133, .T. ) ;
#174 = CLOSED_SHELL ( 'NONE', ( #112, #104, #137, #115, #163, #159 ) ) ;
#175 = SURFACE_STYLE_FILL_AREA ( #184 ) ;
#176 = FILL_AREA_STYLE_COLOUR ( '', #185 ) ;
#177 =( LENGTH_UNIT ( ) NAMED_UNIT ( * ) SI_UNIT ( .MILLI., .METRE. ) );
#178 = FACE_OUTER_BOUND ( 'NONE', #93, .T. ) ;
#179 = STYLED_ITEM ( 'NONE', ( #180 ), #104 ) ;
#180 = PRESENTATION_STYLE_ASSIGNMENT (( #186 ) ) ;
#181 = CARTESIAN_POINT ( 'NONE',  ( 0.0000000000000000000, 1.709060627394509600E-014, -1.970946895608671800 ) ) ;
#182 = MECHANICAL_DESIGN_GEOMETRIC_PRESENTATION_REPRESENTATION (  '', ( #179 ), #155 ) ;
#183 = PRESENTATION_LAYER_ASSIGNMENT (  '', '', ( #179 ) ) ;
#184 = FILL_AREA_STYLE ('',( #176 ) ) ;
#185 = COLOUR_RGB ( '',0.9568627450980391500, 0.9490196078431372100, 0.9607843137254902200 ) ;
#186 = SURFACE_STYLE_USAGE ( .BOTH. , #187 ) ;
#187 = SURFACE_SIDE_STYLE ('',( #175 ) ) ;
#188 =( GEOMETRIC_REPRESENTATION_CONTEXT ( 3 ) GLOBAL_UNCERTAINTY_ASSIGNED_CONTEXT ( ( #152 ) ) GLOBAL_UNIT_ASSIGNED_CONTEXT ( ( #145, #147, #151 ) ) REPRESENTATION_CONTEXT ( 'NONE', 'WORKASPACE' ) );
#189 = CARTESIAN_POINT ( 'NONE',  ( 0.0000000000000000000, 0.0000000000000000000, 9.484156859232379900 ) ) ;
#190 = AXIS2_PLACEMENT_3D ( 'NONE', #189, #191, #193 ) ;
#191 = DIRECTION ( 'NONE',  ( -0.0000000000000000000, -0.0000000000000000000, 1.000000000000000000 ) ) ;
#192 = CYLINDRICAL_SURFACE ( 'NONE', #190, 25.39999999999999900 ) ;
#193 = DIRECTION ( 'NONE',  ( 1.000000000000000000, 0.0000000000000000000, 0.0000000000000000000 ) ) ;
#194 = CIRCLE ( 'NONE', #215, 25.39999999999999900 ) ;
#195 = DIRECTION ( 'NONE',  ( 1.000000000000000000, 0.0000000000000000000, 0.0000000000000000000 ) ) ;
#196 = DIRECTION ( 'NONE',  ( -0.0000000000000000000, -0.0000000000000000000, 1.000000000000000000 ) ) ;
#197 = CARTESIAN_POINT ( 'NONE',  ( 0.0000000000000000000, 0.0000000000000000000, -0.1478147148780816800 ) ) ;
#198 = AXIS2_PLACEMENT_3D ( 'NONE', #197, #196, #195 ) ;
#199 = CIRCLE ( 'NONE', #198, 25.39999999999999900 ) ;
#200 = CARTESIAN_POINT ( 'NONE',  ( 0.0000000000000000000, 0.0000000000000000000, -3.129053104391321700 ) ) ;
#201 = DIRECTION ( 'NONE',  ( 1.000000000000000000, 0.0000000000000000000, 0.0000000000000000000 ) ) ;
#202 = DIRECTION ( 'NONE',  ( -0.0000000000000000000, -0.0000000000000000000, 1.000000000000000000 ) ) ;
#203 = AXIS2_PLACEMENT_3D ( 'NONE', #200, #202, #201 ) ;
#204 = CIRCLE ( 'NONE', #203, 25.39999999999999900 ) ;
#205 = DIRECTION ( 'NONE',  ( -0.0000000000000000000, -0.0000000000000000000, 1.000000000000000000 ) ) ;
#206 = DIRECTION ( 'NONE',  ( -1.224606353822377300E-016, -1.000000000000000000, 0.0000000000000000000 ) ) ;
#207 = DIRECTION ( 'NONE',  ( -1.000000000000000000, 1.224606353822377300E-016, 0.0000000000000000000 ) ) ;
#208 = AXIS2_PLACEMENT_3D ( 'NONE', #210, #207, #206 ) ;
#209 = CARTESIAN_POINT ( 'NONE',  ( 0.0000000000000000000, 0.0000000000000000000, -3.129053104391321700 ) ) ;
#210 = CARTESIAN_POINT ( 'NONE',  ( 0.0000000000000000000, 0.0000000000000000000, -281.0909468956086200 ) ) ;
#211 = CARTESIAN_POINT ( 'NONE',  ( 0.0000000000000000000, 25.40000000000005500, -3.129053104391321700 ) ) ;
#212 = DIRECTION ( 'NONE',  ( 0.0000000000000000000, 0.0000000000000000000, -1.000000000000000000 ) ) ;
#213 = DIRECTION ( 'NONE',  ( 1.000000000000000000, -0.0000000000000000000, 0.0000000000000000000 ) ) ;
#214 = DIRECTION ( 'NONE',  ( 1.000000000000000000, 0.0000000000000000000, 0.0000000000000000000 ) ) ;
#215 = AXIS2_PLACEMENT_3D ( 'NONE', #209, #205, #214 ) ;
#216 = CARTESIAN_POINT ( 'NONE',  ( 0.0000000000000000000, 0.0000000000000000000, -281.0909468956086200 ) ) ;
#217 = AXIS2_PLACEMENT_3D ( 'NONE', #216, #213, #212 ) ;
#218 = CIRCLE ( 'NONE', #217, 279.1200000000000600 ) ;
#219 = CIRCLE ( 'NONE', #208, 279.1200000000000000 ) ;
#220 = PRESENTATION_LAYER_ASSIGNMENT (  '', '', ( #221 ) ) ;
#221 = STYLED_ITEM ( 'NONE', ( #222 ), #112 ) ;
#222 = PRESENTATION_STYLE_ASSIGNMENT (( #223 ) ) ;
#223 = SURFACE_STYLE_USAGE ( .BOTH. , #224 ) ;
#224 = SURFACE_SIDE_STYLE ('',( #231 ) ) ;
#225 = FACE_OUTER_BOUND ( 'NONE', #121, .T. ) ;
#226 =( LENGTH_UNIT ( ) NAMED_UNIT ( * ) SI_UNIT ( .MILLI., .METRE. ) );
#227 = MECHANICAL_DESIGN_GEOMETRIC_PRESENTATION_REPRESENTATION (  '', ( #221 ), #236 ) ;
#228 =( NAMED_UNIT ( * ) PLANE_ANGLE_UNIT ( ) SI_UNIT ( $, .RADIAN. ) );
#229 = UNCERTAINTY_MEASURE_WITH_UNIT (LENGTH_MEASURE( 1.000000000000000100E-005 ), #226, 'distance_accuracy_value', 'NONE');
#230 =( NAMED_UNIT ( * ) SI_UNIT ( $, .STERADIAN. ) SOLID_ANGLE_UNIT ( ) );
#231 = SURFACE_STYLE_FILL_AREA ( #232 ) ;
#232 = FILL_AREA_STYLE ('',( #234 ) ) ;
#233 = COLOUR_RGB ( '',0.9568627450980391500, 0.9490196078431372100, 0.9607843137254902200 ) ;
#234 = FILL_AREA_STYLE_COLOUR ( '', #233 ) ;
#235 = CARTESIAN_POINT ( 'NONE',  ( -3.110500138708838600E-015, -25.40000000000000200, -0.1478147148780894800 ) ) ;
#236 =( GEOMETRIC_REPRESENTATION_CONTEXT ( 3 ) GLOBAL_UNCERTAINTY_ASSIGNED_CONTEXT ( ( #229 ) ) GLOBAL_UNIT_ASSIGNED_CONTEXT ( ( #226, #228, #230 ) ) REPRESENTATION_CONTEXT ( 'NONE', 'WORKASPACE' ) );
#237 = SPHERICAL_SURFACE ( 'NONE', #154, 279.1200000000000000 ) ;
#238 = CARTESIAN_POINT ( 'NONE',  ( -25.39999999999999900, 3.110500138708838200E-015, -3.129053104391321700 ) ) ;
#239 = CARTESIAN_POINT ( 'NONE',  ( 25.39999999999999900, 0.0000000000000000000, -3.129053104391321700 ) ) ;
#240 = FILL_AREA_STYLE_COLOUR ( '', #247 ) ;
#241 = FACE_OUTER_BOUND ( 'NONE', #128, .T. ) ;
#242 = PRESENTATION_STYLE_ASSIGNMENT (( #243 ) ) ;
#243 = SURFACE_STYLE_USAGE ( .BOTH. , #244 ) ;
#244 = SURFACE_SIDE_STYLE ('',( #245 ) ) ;
#245 = SURFACE_STYLE_FILL_AREA ( #246 ) ;
#246 = FILL_AREA_STYLE ('',( #240 ) ) ;
#247 = COLOUR_RGB ( '',0.9568627450980391500, 0.9490196078431372100, 0.9607843137254902200 ) ;
#248 = CARTESIAN_POINT ( 'NONE',  ( 0.0000000000000000000, 0.0000000000000000000, -96.95094689560868100 ) ) ;
#249 =( LENGTH_UNIT ( ) NAMED_UNIT ( * ) SI_UNIT ( .MILLI., .METRE. ) );
#250 = COLOUR_RGB ( '',0.7960784313725489700, 0.8235294117647058400, 0.9372549019607843100 ) ;
#251 = SPHERICAL_SURFACE ( 'NONE', #263, 100.0800000000000000 ) ;
#252 = SURFACE_SIDE_STYLE ('',( #253 ) ) ;
#253 = SURFACE_STYLE_FILL_AREA ( #254 ) ;
#254 = FILL_AREA_STYLE ('',( #257 ) ) ;
#255 = DIRECTION ( 'NONE',  ( -1.000000000000000000, 0.0000000000000000000, 0.0000000000000000000 ) ) ;
#256 = DIRECTION ( 'NONE',  ( 0.0000000000000000000, 1.000000000000000000, 0.0000000000000000000 ) ) ;
#257 = FILL_AREA_STYLE_COLOUR ( '', #250 ) ;
#258 = MECHANICAL_DESIGN_GEOMETRIC_PRESENTATION_REPRESENTATION (  '', ( #260 ), #281 ) ;
#259 = PRESENTATION_LAYER_ASSIGNMENT (  '', '', ( #260 ) ) ;
#260 = STYLED_ITEM ( 'NONE', ( #261 ), #117 ) ;
#261 = PRESENTATION_STYLE_ASSIGNMENT (( #262 ) ) ;
#262 = SURFACE_STYLE_USAGE ( .BOTH. , #252 ) ;
#263 = AXIS2_PLACEMENT_3D ( 'NONE', #248, #255, #256 ) ;
#264 = UNCERTAINTY_MEASURE_WITH_UNIT (LENGTH_MEASURE( 1.000000000000000100E-005 ), #249, 'distance_accuracy_value', 'NONE');
#265 = LINE ( 'NONE', #275, #277 ) ;
#266 = DIRECTION ( 'NONE',  ( -1.224606353822377300E-016, -1.000000000000000000, 0.0000000000000000000 ) ) ;
#267 = DIRECTION ( 'NONE',  ( -1.000000000000000000, 1.224606353822377300E-016, 0.0000000000000000000 ) ) ;
#268 = CARTESIAN_POINT ( 'NONE',  ( 0.0000000000000000000, 0.0000000000000000000, -96.95094689560868100 ) ) ;
#269 = AXIS2_PLACEMENT_3D ( 'NONE', #268, #267, #266 ) ;
#270 = CIRCLE ( 'NONE', #269, 100.0800000000000000 ) ;
#271 = UNCERTAINTY_MEASURE_WITH_UNIT (LENGTH_MEASURE( 1.000000000000000100E-005 ), #303, 'distance_accuracy_value', 'NONE');
#272 = CARTESIAN_POINT ( 'NONE',  ( 0.0000000000000000000, 25.40000000000000200, -0.1478147148780894800 ) ) ;
#273 = DIRECTION ( 'NONE',  ( 1.000000000000000000, 0.0000000000000000000, 0.0000000000000000000 ) ) ;
#274 = DIRECTION ( 'NONE',  ( -0.0000000000000000000, -0.0000000000000000000, 1.000000000000000000 ) ) ;
#275 = CARTESIAN_POINT ( 'NONE',  ( -25.39999999999999900, 3.110500138708838200E-015, 9.484156859232379900 ) ) ;
#276 = AXIS2_PLACEMENT_3D ( 'NONE', #280, #279, #273 ) ;
#277 = VECTOR ( 'NONE', #274, 1000.000000000000000 ) ;
#278 = CIRCLE ( 'NONE', #276, 25.39999999999999900 ) ;
#279 = DIRECTION ( 'NONE',  ( -0.0000000000000000000, -0.0000000000000000000, 1.000000000000000000 ) ) ;
#280 = CARTESIAN_POINT ( 'NONE',  ( 0.0000000000000000000, 0.0000000000000000000, -0.1478147148780816800 ) ) ;
#281 =( GEOMETRIC_REPRESENTATION_CONTEXT ( 3 ) GLOBAL_UNCERTAINTY_ASSIGNED_CONTEXT ( ( #264 ) ) GLOBAL_UNIT_ASSIGNED_CONTEXT ( ( #249, #141, #142 ) ) REPRESENTATION_CONTEXT ( 'NONE', 'WORKASPACE' ) );
#282 = CARTESIAN_POINT ( 'NONE',  ( 0.0000000000000000000, 0.0000000000000000000, -3.129053104391321700 ) ) ;
#283 = AXIS2_PLACEMENT_3D ( 'NONE', #282, #293, #292 ) ;
#284 = CIRCLE ( 'NONE', #283, 25.39999999999999900 ) ;
#285 = CARTESIAN_POINT ( 'NONE',  ( 0.0000000000000000000, 0.0000000000000000000, -96.95094689560868100 ) ) ;
#286 = CARTESIAN_POINT ( 'NONE',  ( 0.0000000000000000000, 6.127930194527175800E-015, 3.129053104391321700 ) ) ;
#287 =( GEOMETRIC_REPRESENTATION_CONTEXT ( 3 ) GLOBAL_UNCERTAINTY_ASSIGNED_CONTEXT ( ( #271 ) ) GLOBAL_UNIT_ASSIGNED_CONTEXT ( ( #303, #302, #301 ) ) REPRESENTATION_CONTEXT ( 'NONE', 'WORKASPACE' ) );
#288 = DIRECTION ( 'NONE',  ( 0.0000000000000000000, 0.0000000000000000000, -1.000000000000000000 ) ) ;
#289 = DIRECTION ( 'NONE',  ( 1.000000000000000000, 0.0000000000000000000, 0.0000000000000000000 ) ) ;
#290 = AXIS2_PLACEMENT_3D ( 'NONE', #285, #289, #288 ) ;
#291 = CIRCLE ( 'NONE', #290, 100.0800000000000000 ) ;
#292 = DIRECTION ( 'NONE',  ( 1.000000000000000000, 0.0000000000000000000, 0.0000000000000000000 ) ) ;
#293 = DIRECTION ( 'NONE',  ( -0.0000000000000000000, -0.0000000000000000000, 1.000000000000000000 ) ) ;
#294 = CARTESIAN_POINT ( 'NONE',  ( 0.0000000000000000000, 0.0000000000000000000, -0.1478147148780816800 ) ) ;
#295 = CARTESIAN_POINT ( 'NONE',  ( 25.39999999999999900, 0.0000000000000000000, 9.484156859232379900 ) ) ;
#296 = DIRECTION ( 'NONE',  ( 1.000000000000000000, 0.0000000000000000000, 0.0000000000000000000 ) ) ;
#297 = DIRECTION ( 'NONE',  ( -0.0000000000000000000, -0.0000000000000000000, 1.000000000000000000 ) ) ;
#298 = LINE ( 'NONE', #295, #322 ) ;
#299 = AXIS2_PLACEMENT_3D ( 'NONE', #294, #297, #296 ) ;
#300 = CIRCLE ( 'NONE', #299, 25.39999999999999900 ) ;
#301 =( NAMED_UNIT ( * ) SI_UNIT ( $, .STERADIAN. ) SOLID_ANGLE_UNIT ( ) );
#302 =( NAMED_UNIT ( * ) PLANE_ANGLE_UNIT ( ) SI_UNIT ( $, .RADIAN. ) );
#303 =( LENGTH_UNIT ( ) NAMED_UNIT ( * ) SI_UNIT ( .MILLI., .METRE. ) );
#304 = MECHANICAL_DESIGN_GEOMETRIC_PRESENTATION_REPRESENTATION (  '', ( #306 ), #287 ) ;
#305 = PRESENTATION_LAYER_ASSIGNMENT (  '', '', ( #306 ) ) ;
#306 = STYLED_ITEM ( 'NONE', ( #307 ), #137 ) ;
#307 = PRESENTATION_STYLE_ASSIGNMENT (( #308 ) ) ;
#308 = SURFACE_STYLE_USAGE ( .BOTH. , #309 ) ;
#309 = SURFACE_SIDE_STYLE ('',( #310 ) ) ;
#310 = SURFACE_STYLE_FILL_AREA ( #311 ) ;
#311 = FILL_AREA_STYLE ('',( #312 ) ) ;
#312 = FILL_AREA_STYLE_COLOUR ( '', #313 ) ;
#313 = COLOUR_RGB ( '',0.9568627450980391500, 0.9490196078431372100, 0.9607843137254902200 ) ;
#314 = DIRECTION ( 'NONE',  ( 1.000000000000000000, 0.0000000000000000000, 0.0000000000000000000 ) ) ;
#315 = DIRECTION ( 'NONE',  ( -0.0000000000000000000, -0.0000000000000000000, 1.000000000000000000 ) ) ;
#316 = CARTESIAN_POINT ( 'NONE',  ( 0.0000000000000000000, 0.0000000000000000000, -0.1478147148780816800 ) ) ;
#317 = AXIS2_PLACEMENT_3D ( 'NONE', #316, #315, #314 ) ;
#318 = CIRCLE ( 'NONE', #317, 25.39999999999999900 ) ;
#319 = FACE_OUTER_BOUND ( 'NONE', #106, .T. ) ;
#320 = CARTESIAN_POINT ( 'NONE',  ( -3.110500138708845300E-015, -25.40000000000005500, -3.129053104391321700 ) ) ;
#321 = DIRECTION ( 'NONE',  ( -0.0000000000000000000, -0.0000000000000000000, 1.000000000000000000 ) ) ;
#322 = VECTOR ( 'NONE', #321, 1000.000000000000000 ) ;
ENDSEC;
END-ISO-10303-21;
