ISO-10303-21;
HEADER;
FILE_DESCRIPTION (( 'STEP AP203' ),
    '1' );
FILE_NAME ('Web Model 68390.STEP',
    '2017-01-31T19:54:28',
    ( '' ),
    ( '' ),
    'SwSTEP 2.0',
    'SolidWorks 2016',
    '' );
FILE_SCHEMA (( 'CONFIG_CONTROL_DESIGN' ));
ENDSEC;

DATA;
#1 = EDGE_CURVE ( 'NONE', #219, #15, #85, .T. ) ;
#2 = LINE ( 'NONE', #217, #183 ) ;
#3 = VERTEX_POINT ( 'NONE', #179 ) ;
#4 = AXIS2_PLACEMENT_3D ( 'NONE', #200, #131, #67 ) ;
#5 = PERSON_AND_ORGANIZATION ( #192, #120 ) ;
#6 = ORIENTED_EDGE ( 'NONE', *, *, #173, .T. ) ;
#7 = PERSON_AND_ORGANIZATION ( #192, #120 ) ;
#8 = CARTESIAN_POINT ( 'NONE',  ( 12.50000000000000000, 19.00000000000000400, 3.000000000000000000 ) ) ;
#9 = PLANE ( 'NONE',  #48 ) ;
#10 = PRODUCT_DEFINITION_FORMATION_WITH_SPECIFIED_SOURCE ( 'ANY', '', #214, .NOT_KNOWN. ) ;
#11 = DIRECTION ( 'NONE',  ( 1.369518533665900300E-016, -1.000000000000000000, 0.0000000000000000000 ) ) ;
#12 = CARTESIAN_POINT ( 'NONE',  ( 12.50000000000000000, 19.00000000000000400, 3.000000000000000000 ) ) ;
#13 = PERSON_AND_ORGANIZATION ( #192, #120 ) ;
#14 = DATE_TIME_ROLE ( 'classification_date' ) ;
#15 = VERTEX_POINT ( 'NONE', #142 ) ;
#16 = APPROVAL_ROLE ( '' ) ;
#17 = LINE ( 'NONE', #105, #228 ) ;
#18 = AXIS2_PLACEMENT_3D ( 'NONE', #87, #163, #138 ) ;
#19 = LOCAL_TIME ( 14, 54, 28.00000000000000000, #113 ) ;
#20 = ORIENTED_EDGE ( 'NONE', *, *, #130, .T. ) ;
#21 = SHAPE_DEFINITION_REPRESENTATION ( #202, #206 ) ;
#22 = CC_DESIGN_PERSON_AND_ORGANIZATION_ASSIGNMENT ( #98, #38, ( #10 ) ) ;
#23 = DIRECTION ( 'NONE',  ( -0.0000000000000000000, -0.0000000000000000000, -1.000000000000000000 ) ) ;
#24 = CARTESIAN_POINT ( 'NONE',  ( 12.50000000000000000, 19.00000000000000400, 0.0000000000000000000 ) ) ;
#25 = FACE_OUTER_BOUND ( 'NONE', #26, .T. ) ;
#26 = EDGE_LOOP ( 'NONE', ( #191, #122, #223, #110 ) ) ;
#27 = EDGE_CURVE ( 'NONE', #3, #93, #222, .T. ) ;
#28 = AXIS2_PLACEMENT_3D ( 'NONE', #88, #144, #31 ) ;
#29 = DIRECTION ( 'NONE',  ( 1.000000000000000000, 1.387778780781445700E-016, -0.0000000000000000000 ) ) ;
#30 = VECTOR ( 'NONE', #106, 1000.000000000000000 ) ;
#31 = DIRECTION ( 'NONE',  ( -1.000000000000000000, 0.0000000000000000000, -0.0000000000000000000 ) ) ;
#32 = DIRECTION ( 'NONE',  ( 1.000000000000000000, 1.369518533665900100E-016, -0.0000000000000000000 ) ) ;
#33 = DATE_AND_TIME ( #83, #227 ) ;
#34 = VECTOR ( 'NONE', #215, 1000.000000000000000 ) ;
#35 = PERSON_AND_ORGANIZATION_ROLE ( 'creator' ) ;
#36 = APPROVAL_PERSON_ORGANIZATION ( #89, #139, #151 ) ;
#37 = FACE_OUTER_BOUND ( 'NONE', #168, .T. ) ;
#38 = PERSON_AND_ORGANIZATION_ROLE ( 'design_supplier' ) ;
#39 = SECURITY_CLASSIFICATION ( '', '', #75 ) ;
#40 = LINE ( 'NONE', #71, #157 ) ;
#41 = CLOSED_SHELL ( 'NONE', ( #114, #145, #186, #132, #54, #234 ) ) ;
#42 = EDGE_LOOP ( 'NONE', ( #69, #56, #118, #6 ) ) ;
#43 = VECTOR ( 'NONE', #211, 1000.000000000000000 ) ;
#44 = CARTESIAN_POINT ( 'NONE',  ( 12.50000000000000000, 19.00000000000000400, 3.000000000000000000 ) ) ;
#45 = EDGE_CURVE ( 'NONE', #175, #81, #135, .T. ) ;
#46 = PERSON_AND_ORGANIZATION ( #192, #120 ) ;
#47 = PLANE ( 'NONE',  #4 ) ;
#48 = AXIS2_PLACEMENT_3D ( 'NONE', #204, #92, #233 ) ;
#49 = CARTESIAN_POINT ( 'NONE',  ( -12.49999999999999500, -19.00000000000000000, 3.000000000000000000 ) ) ;
#50 = VECTOR ( 'NONE', #203, 1000.000000000000000 ) ;
#51 = ORIENTED_EDGE ( 'NONE', *, *, #27, .T. ) ;
#52 = DIRECTION ( 'NONE',  ( -1.369518533665900100E-016, 1.000000000000000000, 0.0000000000000000000 ) ) ;
#53 = DIRECTION ( 'NONE',  ( 0.0000000000000000000, 0.0000000000000000000, 1.000000000000000000 ) ) ;
#54 = ADVANCED_FACE ( 'NONE', ( #25 ), #198, .F. ) ;
#55 = APPLICATION_CONTEXT ( 'configuration controlled 3d designs of mechanical parts and assemblies' ) ;
#56 = ORIENTED_EDGE ( 'NONE', *, *, #155, .F. ) ;
#57 = EDGE_CURVE ( 'NONE', #15, #175, #115, .T. ) ;
#58 = LOCAL_TIME ( 14, 54, 28.00000000000000000, #209 ) ;
#59 = LINE ( 'NONE', #24, #137 ) ;
#60 = CC_DESIGN_DATE_AND_TIME_ASSIGNMENT ( #190, #14, ( #39 ) ) ;
#61 = DATE_AND_TIME ( #213, #19 ) ;
#62 = APPROVAL ( #154, 'UNSPECIFIED' ) ;
#63 = APPROVAL_DATE_TIME ( #61, #195 ) ;
#64 = DIRECTION ( 'NONE',  ( -1.369518533665900300E-016, 1.000000000000000000, -0.0000000000000000000 ) ) ;
#65 = CARTESIAN_POINT ( 'NONE',  ( 12.50000000000000500, -18.99999999999999600, 3.000000000000000000 ) ) ;
#66 = COORDINATED_UNIVERSAL_TIME_OFFSET ( 5, 0, .BEHIND. ) ;
#67 = DIRECTION ( 'NONE',  ( 1.369518533665900100E-016, -1.000000000000000000, 0.0000000000000000000 ) ) ;
#68 = LINE ( 'NONE', #65, #160 ) ;
#69 = ORIENTED_EDGE ( 'NONE', *, *, #96, .T. ) ;
#70 =( NAMED_UNIT ( * ) SI_UNIT ( $, .STERADIAN. ) SOLID_ANGLE_UNIT ( ) );
#71 = CARTESIAN_POINT ( 'NONE',  ( -12.50000000000000000, 19.00000000000000000, 0.0000000000000000000 ) ) ;
#72 = APPLICATION_PROTOCOL_DEFINITION ( 'international standard', 'config_control_design', 1994, #55 ) ;
#73 = APPROVAL_ROLE ( '' ) ;
#74 = ORIENTED_EDGE ( 'NONE', *, *, #155, .T. ) ;
#75 = SECURITY_CLASSIFICATION_LEVEL ( 'unclassified' ) ;
#76 = UNCERTAINTY_MEASURE_WITH_UNIT (LENGTH_MEASURE( 1.000000000000000100E-005 ), #216, 'distance_accuracy_value', 'NONE');
#77 = PERSON_AND_ORGANIZATION ( #192, #120 ) ;
#78 = FACE_OUTER_BOUND ( 'NONE', #196, .T. ) ;
#79 = VERTEX_POINT ( 'NONE', #103 ) ;
#80 = APPROVAL_DATE_TIME ( #33, #139 ) ;
#81 = VERTEX_POINT ( 'NONE', #124 ) ;
#82 = LINE ( 'NONE', #8, #30 ) ;
#83 = CALENDAR_DATE ( 2017, 31, 1 ) ;
#84 =( GEOMETRIC_REPRESENTATION_CONTEXT ( 3 ) GLOBAL_UNCERTAINTY_ASSIGNED_CONTEXT ( ( #76 ) ) GLOBAL_UNIT_ASSIGNED_CONTEXT ( ( #216, #182, #70 ) ) REPRESENTATION_CONTEXT ( 'NONE', 'WORKASPACE' ) );
#85 = LINE ( 'NONE', #44, #34 ) ;
#86 = ORIENTED_EDGE ( 'NONE', *, *, #27, .F. ) ;
#87 = CARTESIAN_POINT ( 'NONE',  ( -12.49999999999999500, -19.00000000000000000, 3.000000000000000000 ) ) ;
#88 = CARTESIAN_POINT ( 'NONE',  ( -12.49999999999999500, -19.00000000000000000, 0.0000000000000000000 ) ) ;
#89 = PERSON_AND_ORGANIZATION ( #192, #120 ) ;
#90 = FACE_OUTER_BOUND ( 'NONE', #161, .T. ) ;
#91 = CARTESIAN_POINT ( 'NONE',  ( -12.50000000000000000, 19.00000000000000000, 3.000000000000000000 ) ) ;
#92 = DIRECTION ( 'NONE',  ( -1.387778780781445400E-016, 1.000000000000000000, 0.0000000000000000000 ) ) ;
#93 = VERTEX_POINT ( 'NONE', #197 ) ;
#94 = ORIENTED_EDGE ( 'NONE', *, *, #45, .F. ) ;
#95 = ORIENTED_EDGE ( 'NONE', *, *, #57, .F. ) ;
#96 = EDGE_CURVE ( 'NONE', #93, #79, #59, .T. ) ;
#97 = CC_DESIGN_APPROVAL ( #62, ( #10 ) ) ;
#98 = PERSON_AND_ORGANIZATION ( #192, #120 ) ;
#99 = ORIENTED_EDGE ( 'NONE', *, *, #230, .F. ) ;
#100 = CC_DESIGN_PERSON_AND_ORGANIZATION_ASSIGNMENT ( #46, #111, ( #39 ) ) ;
#101 = LINE ( 'NONE', #91, #50 ) ;
#102 = ORIENTED_EDGE ( 'NONE', *, *, #96, .F. ) ;
#103 = CARTESIAN_POINT ( 'NONE',  ( -12.50000000000000000, 19.00000000000000000, 0.0000000000000000000 ) ) ;
#104 = APPROVAL_PERSON_ORGANIZATION ( #7, #62, #73 ) ;
#105 = CARTESIAN_POINT ( 'NONE',  ( 12.50000000000000500, -18.99999999999999600, 3.000000000000000000 ) ) ;
#106 = DIRECTION ( 'NONE',  ( -1.369518533665900300E-016, 1.000000000000000000, -0.0000000000000000000 ) ) ;
#107 = DIRECTION ( 'NONE',  ( 1.000000000000000000, 1.387778780781445400E-016, 0.0000000000000000000 ) ) ;
#108 = CALENDAR_DATE ( 2017, 31, 1 ) ;
#109 = FACE_OUTER_BOUND ( 'NONE', #188, .T. ) ;
#110 = ORIENTED_EDGE ( 'NONE', *, *, #1, .T. ) ;
#111 = PERSON_AND_ORGANIZATION_ROLE ( 'classification_officer' ) ;
#112 = DIRECTION ( 'NONE',  ( 1.000000000000000000, 0.0000000000000000000, 0.0000000000000000000 ) ) ;
#113 = COORDINATED_UNIVERSAL_TIME_OFFSET ( 5, 0, .BEHIND. ) ;
#114 = ADVANCED_FACE ( 'NONE', ( #37 ), #121, .F. ) ;
#115 = LINE ( 'NONE', #176, #43 ) ;
#116 = EDGE_CURVE ( 'NONE', #175, #236, #68, .T. ) ;
#117 = DATE_AND_TIME ( #164, #58 ) ;
#118 = ORIENTED_EDGE ( 'NONE', *, *, #1, .F. ) ;
#119 = ORIENTED_EDGE ( 'NONE', *, *, #237, .F. ) ;
#120 = ORGANIZATION ( 'UNSPECIFIED', 'UNSPECIFIED', '' ) ;
#121 = PLANE ( 'NONE',  #127 ) ;
#122 = ORIENTED_EDGE ( 'NONE', *, *, #116, .T. ) ;
#123 = CC_DESIGN_PERSON_AND_ORGANIZATION_ASSIGNMENT ( #136, #224, ( #10 ) ) ;
#124 = CARTESIAN_POINT ( 'NONE',  ( -12.49999999999999500, -19.00000000000000000, 0.0000000000000000000 ) ) ;
#125 = VECTOR ( 'NONE', #23, 1000.000000000000000 ) ;
#126 = DIRECTION ( 'NONE',  ( -1.000000000000000000, -1.387778780781445700E-016, 0.0000000000000000000 ) ) ;
#127 = AXIS2_PLACEMENT_3D ( 'NONE', #212, #32, #52 ) ;
#128 = VECTOR ( 'NONE', #29, 1000.000000000000000 ) ;
#129 = CC_DESIGN_APPROVAL ( #139, ( #39 ) ) ;
#130 = EDGE_CURVE ( 'NONE', #79, #81, #40, .T. ) ;
#131 = DIRECTION ( 'NONE',  ( -1.000000000000000000, -1.369518533665900100E-016, 0.0000000000000000000 ) ) ;
#132 = ADVANCED_FACE ( 'NONE', ( #143 ), #169, .F. ) ;
#133 = MECHANICAL_CONTEXT ( 'NONE', #55, 'mechanical' ) ;
#134 = LINE ( 'NONE', #165, #128 ) ;
#135 = LINE ( 'NONE', #231, #125 ) ;
#136 = PERSON_AND_ORGANIZATION ( #192, #120 ) ;
#137 = VECTOR ( 'NONE', #126, 1000.000000000000000 ) ;
#138 = DIRECTION ( 'NONE',  ( -1.000000000000000000, 0.0000000000000000000, -0.0000000000000000000 ) ) ;
#139 = APPROVAL ( #171, 'UNSPECIFIED' ) ;
#140 = CARTESIAN_POINT ( 'NONE',  ( 12.50000000000000000, 19.00000000000000400, 0.0000000000000000000 ) ) ;
#141 = ORIENTED_EDGE ( 'NONE', *, *, #149, .F. ) ;
#142 = CARTESIAN_POINT ( 'NONE',  ( -12.50000000000000000, 19.00000000000000000, 3.000000000000000000 ) ) ;
#143 = FACE_OUTER_BOUND ( 'NONE', #42, .T. ) ;
#144 = DIRECTION ( 'NONE',  ( 0.0000000000000000000, 0.0000000000000000000, -1.000000000000000000 ) ) ;
#145 = ADVANCED_FACE ( 'NONE', ( #90 ), #9, .F. ) ;
#146 = AXIS2_PLACEMENT_3D ( 'NONE', #166, #53, #112 ) ;
#147 = PLANE ( 'NONE',  #28 ) ;
#148 = MANIFOLD_SOLID_BREP ( 'Extrude1', #41 ) ;
#149 = EDGE_CURVE ( 'NONE', #81, #3, #134, .T. ) ;
#150 = PERSON_AND_ORGANIZATION_ROLE ( 'design_owner' ) ;
#151 = APPROVAL_ROLE ( '' ) ;
#152 = CALENDAR_DATE ( 2017, 31, 1 ) ;
#153 = APPROVAL_STATUS ( 'not_yet_approved' ) ;
#154 = APPROVAL_STATUS ( 'not_yet_approved' ) ;
#155 = EDGE_CURVE ( 'NONE', #15, #79, #101, .T. ) ;
#156 = DESIGN_CONTEXT ( 'detailed design', #189, 'design' ) ;
#157 = VECTOR ( 'NONE', #11, 1000.000000000000000 ) ;
#158 = ORIENTED_EDGE ( 'NONE', *, *, #173, .F. ) ;
#159 = ORIENTED_EDGE ( 'NONE', *, *, #45, .T. ) ;
#160 = VECTOR ( 'NONE', #235, 1000.000000000000000 ) ;
#161 = EDGE_LOOP ( 'NONE', ( #226, #119, #210, #159 ) ) ;
#162 = APPROVAL_PERSON_ORGANIZATION ( #77, #195, #16 ) ;
#163 = DIRECTION ( 'NONE',  ( 0.0000000000000000000, 0.0000000000000000000, -1.000000000000000000 ) ) ;
#164 = CALENDAR_DATE ( 2017, 31, 1 ) ;
#165 = CARTESIAN_POINT ( 'NONE',  ( 12.50000000000000500, -18.99999999999999600, 0.0000000000000000000 ) ) ;
#166 = CARTESIAN_POINT ( 'NONE',  ( 0.0000000000000000000, 0.0000000000000000000, 0.0000000000000000000 ) ) ;
#167 = DATE_AND_TIME ( #152, #199 ) ;
#168 = EDGE_LOOP ( 'NONE', ( #20, #94, #95, #74 ) ) ;
#169 = PLANE ( 'NONE',  #221 ) ;
#170 = DATE_TIME_ROLE ( 'creation_date' ) ;
#171 = APPROVAL_STATUS ( 'not_yet_approved' ) ;
#172 = CC_DESIGN_PERSON_AND_ORGANIZATION_ASSIGNMENT ( #13, #150, ( #214 ) ) ;
#173 = EDGE_CURVE ( 'NONE', #219, #93, #2, .T. ) ;
#174 = VECTOR ( 'NONE', #64, 1000.000000000000000 ) ;
#175 = VERTEX_POINT ( 'NONE', #49 ) ;
#176 = CARTESIAN_POINT ( 'NONE',  ( -12.50000000000000000, 19.00000000000000000, 3.000000000000000000 ) ) ;
#177 = CC_DESIGN_SECURITY_CLASSIFICATION ( #39, ( #10 ) ) ;
#178 = COORDINATED_UNIVERSAL_TIME_OFFSET ( 5, 0, .BEHIND. ) ;
#179 = CARTESIAN_POINT ( 'NONE',  ( 12.50000000000000500, -18.99999999999999600, 0.0000000000000000000 ) ) ;
#180 = CARTESIAN_POINT ( 'NONE',  ( 12.50000000000000000, 19.00000000000000400, 3.000000000000000000 ) ) ;
#181 = PRODUCT_RELATED_PRODUCT_CATEGORY ( 'detail', '', ( #214 ) ) ;
#182 =( NAMED_UNIT ( * ) PLANE_ANGLE_UNIT ( ) SI_UNIT ( $, .RADIAN. ) );
#183 = VECTOR ( 'NONE', #185, 1000.000000000000000 ) ;
#184 = PRODUCT_DEFINITION ( 'UNKNOWN', '', #10, #156 ) ;
#185 = DIRECTION ( 'NONE',  ( -0.0000000000000000000, -0.0000000000000000000, -1.000000000000000000 ) ) ;
#186 = ADVANCED_FACE ( 'NONE', ( #109 ), #47, .F. ) ;
#187 = DIRECTION ( 'NONE',  ( 1.387778780781445400E-016, -1.000000000000000000, 0.0000000000000000000 ) ) ;
#188 = EDGE_LOOP ( 'NONE', ( #51, #158, #99, #208 ) ) ;
#189 = APPLICATION_CONTEXT ( 'configuration controlled 3d designs of mechanical parts and assemblies' ) ;
#190 = DATE_AND_TIME ( #108, #232 ) ;
#191 = ORIENTED_EDGE ( 'NONE', *, *, #57, .T. ) ;
#192 = PERSON ( 'UNSPECIFIED', 'UNSPECIFIED', 'UNSPECIFIED', ('UNSPECIFIED'), ('UNSPECIFIED'), ('UNSPECIFIED') ) ;
#193 = APPROVAL_DATE_TIME ( #167, #62 ) ;
#194 = ORIENTED_EDGE ( 'NONE', *, *, #130, .F. ) ;
#195 = APPROVAL ( #153, 'UNSPECIFIED' ) ;
#196 = EDGE_LOOP ( 'NONE', ( #194, #102, #86, #141 ) ) ;
#197 = CARTESIAN_POINT ( 'NONE',  ( 12.50000000000000000, 19.00000000000000400, 0.0000000000000000000 ) ) ;
#198 = PLANE ( 'NONE',  #18 ) ;
#199 = LOCAL_TIME ( 14, 54, 28.00000000000000000, #225 ) ;
#200 = CARTESIAN_POINT ( 'NONE',  ( 12.50000000000000000, 19.00000000000000400, 3.000000000000000000 ) ) ;
#201 = DIRECTION ( 'NONE',  ( -0.0000000000000000000, -0.0000000000000000000, -1.000000000000000000 ) ) ;
#202 = PRODUCT_DEFINITION_SHAPE ( 'NONE', 'NONE',  #184 ) ;
#203 = DIRECTION ( 'NONE',  ( -0.0000000000000000000, -0.0000000000000000000, -1.000000000000000000 ) ) ;
#204 = CARTESIAN_POINT ( 'NONE',  ( 12.50000000000000500, -18.99999999999999600, 3.000000000000000000 ) ) ;
#205 = APPLICATION_PROTOCOL_DEFINITION ( 'international standard', 'config_control_design', 1994, #189 ) ;
#206 = ADVANCED_BREP_SHAPE_REPRESENTATION ( 'Web Model 68390', ( #148, #146 ), #84 ) ;
#207 = CC_DESIGN_APPROVAL ( #195, ( #184 ) ) ;
#208 = ORIENTED_EDGE ( 'NONE', *, *, #237, .T. ) ;
#209 = COORDINATED_UNIVERSAL_TIME_OFFSET ( 5, 0, .BEHIND. ) ;
#210 = ORIENTED_EDGE ( 'NONE', *, *, #116, .F. ) ;
#211 = DIRECTION ( 'NONE',  ( 1.369518533665900300E-016, -1.000000000000000000, 0.0000000000000000000 ) ) ;
#212 = CARTESIAN_POINT ( 'NONE',  ( -12.50000000000000000, 19.00000000000000000, 3.000000000000000000 ) ) ;
#213 = CALENDAR_DATE ( 2017, 31, 1 ) ;
#214 = PRODUCT ( 'Web Model 68390', 'Web Model 68390', '', ( #133 ) ) ;
#215 = DIRECTION ( 'NONE',  ( -1.000000000000000000, -1.387778780781445700E-016, 0.0000000000000000000 ) ) ;
#216 =( LENGTH_UNIT ( ) NAMED_UNIT ( * ) SI_UNIT ( .MILLI., .METRE. ) );
#217 = CARTESIAN_POINT ( 'NONE',  ( 12.50000000000000000, 19.00000000000000400, 3.000000000000000000 ) ) ;
#218 = CC_DESIGN_PERSON_AND_ORGANIZATION_ASSIGNMENT ( #5, #35, ( #184 ) ) ;
#219 = VERTEX_POINT ( 'NONE', #12 ) ;
#220 = CARTESIAN_POINT ( 'NONE',  ( 12.50000000000000500, -18.99999999999999600, 3.000000000000000000 ) ) ;
#221 = AXIS2_PLACEMENT_3D ( 'NONE', #180, #187, #107 ) ;
#222 = LINE ( 'NONE', #140, #174 ) ;
#223 = ORIENTED_EDGE ( 'NONE', *, *, #230, .T. ) ;
#224 = PERSON_AND_ORGANIZATION_ROLE ( 'creator' ) ;
#225 = COORDINATED_UNIVERSAL_TIME_OFFSET ( 5, 0, .BEHIND. ) ;
#226 = ORIENTED_EDGE ( 'NONE', *, *, #149, .T. ) ;
#227 = LOCAL_TIME ( 14, 54, 28.00000000000000000, #178 ) ;
#228 = VECTOR ( 'NONE', #201, 1000.000000000000000 ) ;
#229 = CC_DESIGN_DATE_AND_TIME_ASSIGNMENT ( #117, #170, ( #184 ) ) ;
#230 = EDGE_CURVE ( 'NONE', #236, #219, #82, .T. ) ;
#231 = CARTESIAN_POINT ( 'NONE',  ( -12.49999999999999500, -19.00000000000000000, 3.000000000000000000 ) ) ;
#232 = LOCAL_TIME ( 14, 54, 28.00000000000000000, #66 ) ;
#233 = DIRECTION ( 'NONE',  ( -1.000000000000000000, -1.387778780781445400E-016, 0.0000000000000000000 ) ) ;
#234 = ADVANCED_FACE ( 'NONE', ( #78 ), #147, .T. ) ;
#235 = DIRECTION ( 'NONE',  ( 1.000000000000000000, 1.387778780781445700E-016, -0.0000000000000000000 ) ) ;
#236 = VERTEX_POINT ( 'NONE', #220 ) ;
#237 = EDGE_CURVE ( 'NONE', #236, #3, #17, .T. ) ;
ENDSEC;
END-ISO-10303-21;
