ISO-10303-21;
HEADER;
FILE_DESCRIPTION (( 'STEP AP203' ),
    '1' );
FILE_NAME ('Web Model 14684_14693.step',
    '2020-04-13T13:40:04',
    ( '' ),
    ( '' ),
    'SwSTEP 2.0',
    'SolidWorks 2018',
    '' );
FILE_SCHEMA (( 'CONFIG_CONTROL_DESIGN' ));
ENDSEC;

DATA;
#1 = EDGE_LOOP ( 'NONE', ( #145, #48, #83, #95 ) ) ;
#2 = CC_DESIGN_APPROVAL ( #94, ( #62 ) ) ;
#3 = FACE_OUTER_BOUND ( 'NONE', #1, .T. ) ;
#4 = DIRECTION ( 'NONE',  ( -1.000000000000000000, -0.0000000000000000000, -0.0000000000000000000 ) ) ;
#5 = PRODUCT_DEFINITION ( 'UNKNOWN', '', #62, #171 ) ;
#6 = DIRECTION ( 'NONE',  ( 0.0000000000000000000, 0.0000000000000000000, -1.000000000000000000 ) ) ;
#7 = EDGE_CURVE ( 'NONE', #123, #44, #143, .T. ) ;
#8 = PERSON_AND_ORGANIZATION ( #82, #130 ) ;
#9 = DIRECTION ( 'NONE',  ( -1.000000000000000000, -0.0000000000000000000, -0.0000000000000000000 ) ) ;
#10 = ORIENTED_EDGE ( 'NONE', *, *, #122, .T. ) ;
#11 = APPROVAL_PERSON_ORGANIZATION ( #69, #66, #54 ) ;
#12 = LOCAL_TIME ( 9, 40, 4.000000000000000000, #106 ) ;
#13 = ADVANCED_FACE ( 'NONE', ( #153 ), #70, .F. ) ;
#14 = AXIS2_PLACEMENT_3D ( 'NONE', #124, #87, #36 ) ;
#15 = CALENDAR_DATE ( 2020, 13, 4 ) ;
#16 = EDGE_CURVE ( 'NONE', #31, #123, #112, .T. ) ;
#17 = DATE_AND_TIME ( #32, #61 ) ;
#18 = CLOSED_SHELL ( 'NONE', ( #108, #167, #119, #13 ) ) ;
#19 = APPROVAL_DATE_TIME ( #156, #51 ) ;
#20 = PLANE ( 'NONE',  #14 ) ;
#21 = AXIS2_PLACEMENT_3D ( 'NONE', #37, #146, #127 ) ;
#22 = CARTESIAN_POINT ( 'NONE',  ( 1.500000000000000000, 0.0000000000000000000, 0.0000000000000000000 ) ) ;
#23 = CARTESIAN_POINT ( 'NONE',  ( 1.500000000000000000, 0.0000000000000000000, 12.69999999999999929 ) ) ;
#24 = CARTESIAN_POINT ( 'NONE',  ( -1.500000000000000000, 0.0000000000000000000, 0.0000000000000000000 ) ) ;
#25 = APPROVAL_STATUS ( 'not_yet_approved' ) ;
#26 = PERSON_AND_ORGANIZATION_ROLE ( 'design_owner' ) ;
#27 = APPLICATION_CONTEXT ( 'configuration controlled 3d designs of mechanical parts and assemblies' ) ;
#28 = APPROVAL_PERSON_ORGANIZATION ( #63, #51, #39 ) ;
#29 = LOCAL_TIME ( 9, 40, 4.000000000000000000, #76 ) ;
#30 = AXIS2_PLACEMENT_3D ( 'NONE', #163, #42, #75 ) ;
#31 = VERTEX_POINT ( 'NONE', #50 ) ;
#32 = CALENDAR_DATE ( 2020, 13, 4 ) ;
#33 = CARTESIAN_POINT ( 'NONE',  ( -1.500000000000000000, 0.0000000000000000000, 0.0000000000000000000 ) ) ;
#34 = AXIS2_PLACEMENT_3D ( 'NONE', #125, #68, #6 ) ;
#35 = LOCAL_TIME ( 9, 40, 4.000000000000000000, #97 ) ;
#36 = DIRECTION ( 'NONE',  ( 0.0000000000000000000, 0.0000000000000000000, -1.000000000000000000 ) ) ;
#37 = CARTESIAN_POINT ( 'NONE',  ( 1.500000000000000000, 0.0000000000000000000, 0.0000000000000000000 ) ) ;
#38 = AXIS2_PLACEMENT_3D ( 'NONE', #24, #43, #40 ) ;
#39 = APPROVAL_ROLE ( '' ) ;
#40 = DIRECTION ( 'NONE',  ( 0.0000000000000000000, 0.0000000000000000000, -1.000000000000000000 ) ) ;
#41 = CC_DESIGN_DATE_AND_TIME_ASSIGNMENT ( #99, #52, ( #5 ) ) ;
#42 = DIRECTION ( 'NONE',  ( 1.000000000000000000, 0.0000000000000000000, 0.0000000000000000000 ) ) ;
#43 = DIRECTION ( 'NONE',  ( 1.000000000000000000, 0.0000000000000000000, 0.0000000000000000000 ) ) ;
#44 = VERTEX_POINT ( 'NONE', #159 ) ;
#45 = APPROVAL_DATE_TIME ( #17, #94 ) ;
#46 = SECURITY_CLASSIFICATION ( '', '', #89 ) ;
#47 = COORDINATED_UNIVERSAL_TIME_OFFSET ( 5, 0, .BEHIND. ) ;
#48 = ORIENTED_EDGE ( 'NONE', *, *, #92, .T. ) ;
#49 = PERSON_AND_ORGANIZATION ( #82, #130 ) ;
#50 = CARTESIAN_POINT ( 'NONE',  ( 1.500000000000000000, 1.555301434917138433E-15, -12.69999999999999929 ) ) ;
#51 = APPROVAL ( #102, 'UNSPECIFIED' ) ;
#52 = DATE_TIME_ROLE ( 'creation_date' ) ;
#53 = PERSON_AND_ORGANIZATION ( #82, #130 ) ;
#54 = APPROVAL_ROLE ( '' ) ;
#55 = PERSON_AND_ORGANIZATION_ROLE ( 'classification_officer' ) ;
#56 = APPLICATION_CONTEXT ( 'configuration controlled 3d designs of mechanical parts and assemblies' ) ;
#57 = AXIS2_PLACEMENT_3D ( 'NONE', #135, #164, #88 ) ;
#58 = CYLINDRICAL_SURFACE ( 'NONE', #100, 12.69999999999999929 ) ;
#59 = APPROVAL_PERSON_ORGANIZATION ( #93, #94, #126 ) ;
#60 = MANIFOLD_SOLID_BREP ( 'Boss-Extrude1', #18 ) ;
#61 = LOCAL_TIME ( 9, 40, 4.000000000000000000, #104 ) ;
#62 = PRODUCT_DEFINITION_FORMATION_WITH_SPECIFIED_SOURCE ( 'ANY', '', #169, .NOT_KNOWN. ) ;
#63 = PERSON_AND_ORGANIZATION ( #82, #130 ) ;
#64 = CC_DESIGN_PERSON_AND_ORGANIZATION_ASSIGNMENT ( #142, #128, ( #5 ) ) ;
#65 = VECTOR ( 'NONE', #4, 1000.000000000000000 ) ;
#66 = APPROVAL ( #25, 'UNSPECIFIED' ) ;
#67 = DIRECTION ( 'NONE',  ( 1.000000000000000000, 0.0000000000000000000, 0.0000000000000000000 ) ) ;
#68 = DIRECTION ( 'NONE',  ( 1.000000000000000000, 0.0000000000000000000, 0.0000000000000000000 ) ) ;
#69 = PERSON_AND_ORGANIZATION ( #82, #130 ) ;
#70 = PLANE ( 'NONE',  #175 ) ;
#71 =( LENGTH_UNIT ( ) NAMED_UNIT ( * ) SI_UNIT ( .MILLI., .METRE. ) );
#72 = CC_DESIGN_PERSON_AND_ORGANIZATION_ASSIGNMENT ( #8, #113, ( #62 ) ) ;
#73 = FACE_OUTER_BOUND ( 'NONE', #90, .T. ) ;
#74 = DATE_AND_TIME ( #110, #35 ) ;
#75 = DIRECTION ( 'NONE',  ( 0.0000000000000000000, 0.0000000000000000000, -1.000000000000000000 ) ) ;
#76 = COORDINATED_UNIVERSAL_TIME_OFFSET ( 5, 0, .BEHIND. ) ;
#77 = EDGE_CURVE ( 'NONE', #123, #31, #140, .T. ) ;
#78 = ORIENTED_EDGE ( 'NONE', *, *, #92, .F. ) ;
#79 = DATE_AND_TIME ( #117, #137 ) ;
#80 = FACE_OUTER_BOUND ( 'NONE', #121, .T. ) ;
#81 = AXIS2_PLACEMENT_3D ( 'NONE', #22, #67, #98 ) ;
#82 = PERSON ( 'UNSPECIFIED', 'UNSPECIFIED', 'UNSPECIFIED', ('UNSPECIFIED'), ('UNSPECIFIED'), ('UNSPECIFIED') ) ;
#83 = ORIENTED_EDGE ( 'NONE', *, *, #155, .T. ) ;
#84 = PRODUCT_DEFINITION_SHAPE ( 'NONE', 'NONE',  #5 ) ;
#85 = CARTESIAN_POINT ( 'NONE',  ( 1.500000000000000000, 0.0000000000000000000, 0.0000000000000000000 ) ) ;
#86 = PRODUCT_RELATED_PRODUCT_CATEGORY ( 'detail', '', ( #169 ) ) ;
#87 = DIRECTION ( 'NONE',  ( 1.000000000000000000, 0.0000000000000000000, 0.0000000000000000000 ) ) ;
#88 = DIRECTION ( 'NONE',  ( 1.000000000000000000, 0.0000000000000000000, 0.0000000000000000000 ) ) ;
#89 = SECURITY_CLASSIFICATION_LEVEL ( 'unclassified' ) ;
#90 = EDGE_LOOP ( 'NONE', ( #78, #118, #138, #10 ) ) ;
#91 = MECHANICAL_CONTEXT ( 'NONE', #27, 'mechanical' ) ;
#92 = EDGE_CURVE ( 'NONE', #31, #148, #109, .T. ) ;
#93 = PERSON_AND_ORGANIZATION ( #82, #130 ) ;
#94 = APPROVAL ( #151, 'UNSPECIFIED' ) ;
#95 = ORIENTED_EDGE ( 'NONE', *, *, #7, .F. ) ;
#96 = PERSON_AND_ORGANIZATION ( #82, #130 ) ;
#97 = COORDINATED_UNIVERSAL_TIME_OFFSET ( 5, 0, .BEHIND. ) ;
#98 = DIRECTION ( 'NONE',  ( 0.0000000000000000000, 0.0000000000000000000, -1.000000000000000000 ) ) ;
#99 = DATE_AND_TIME ( #166, #29 ) ;
#100 = AXIS2_PLACEMENT_3D ( 'NONE', #85, #149, #172 ) ;
#101 =( NAMED_UNIT ( * ) PLANE_ANGLE_UNIT ( ) SI_UNIT ( $, .RADIAN. ) );
#102 = APPROVAL_STATUS ( 'not_yet_approved' ) ;
#103 = ORIENTED_EDGE ( 'NONE', *, *, #122, .F. ) ;
#104 = COORDINATED_UNIVERSAL_TIME_OFFSET ( 5, 0, .BEHIND. ) ;
#105 = APPROVAL_DATE_TIME ( #79, #66 ) ;
#106 = COORDINATED_UNIVERSAL_TIME_OFFSET ( 5, 0, .BEHIND. ) ;
#107 = CC_DESIGN_PERSON_AND_ORGANIZATION_ASSIGNMENT ( #96, #174, ( #62 ) ) ;
#108 = ADVANCED_FACE ( 'NONE', ( #3 ), #58, .T. ) ;
#109 = LINE ( 'NONE', #162, #65 ) ;
#110 = CALENDAR_DATE ( 2020, 13, 4 ) ;
#111 = DIRECTION ( 'NONE',  ( 1.000000000000000000, 0.0000000000000000000, 0.0000000000000000000 ) ) ;
#112 = CIRCLE ( 'NONE', #81, 12.69999999999999929 ) ;
#113 = PERSON_AND_ORGANIZATION_ROLE ( 'creator' ) ;
#114 = ORIENTED_EDGE ( 'NONE', *, *, #16, .T. ) ;
#115 = APPLICATION_PROTOCOL_DEFINITION ( 'international standard', 'config_control_design', 1994, #27 ) ;
#116 = CC_DESIGN_PERSON_AND_ORGANIZATION_ASSIGNMENT ( #49, #55, ( #46 ) ) ;
#117 = CALENDAR_DATE ( 2020, 13, 4 ) ;
#118 = ORIENTED_EDGE ( 'NONE', *, *, #77, .F. ) ;
#119 = ADVANCED_FACE ( 'NONE', ( #80 ), #20, .T. ) ;
#120 = UNCERTAINTY_MEASURE_WITH_UNIT (LENGTH_MEASURE( 1.000000000000000082E-05 ), #71, 'distance_accuracy_value', 'NONE');
#121 = EDGE_LOOP ( 'NONE', ( #170, #114 ) ) ;
#122 = EDGE_CURVE ( 'NONE', #44, #148, #141, .T. ) ;
#123 = VERTEX_POINT ( 'NONE', #23 ) ;
#124 = CARTESIAN_POINT ( 'NONE',  ( 1.500000000000000000, 0.0000000000000000000, 0.0000000000000000000 ) ) ;
#125 = CARTESIAN_POINT ( 'NONE',  ( 1.500000000000000000, 0.0000000000000000000, 0.0000000000000000000 ) ) ;
#126 = APPROVAL_ROLE ( '' ) ;
#127 = DIRECTION ( 'NONE',  ( 0.0000000000000000000, 0.0000000000000000000, 1.000000000000000000 ) ) ;
#128 = PERSON_AND_ORGANIZATION_ROLE ( 'creator' ) ;
#129 = APPLICATION_PROTOCOL_DEFINITION ( 'international standard', 'config_control_design', 1994, #56 ) ;
#130 = ORGANIZATION ( 'UNSPECIFIED', 'UNSPECIFIED', '' ) ;
#131 = CC_DESIGN_DATE_AND_TIME_ASSIGNMENT ( #74, #165, ( #46 ) ) ;
#132 = CC_DESIGN_APPROVAL ( #66, ( #5 ) ) ;
#133 = CIRCLE ( 'NONE', #38, 12.69999999999999929 ) ;
#134 = DIRECTION ( 'NONE',  ( 0.0000000000000000000, 0.0000000000000000000, -1.000000000000000000 ) ) ;
#135 = CARTESIAN_POINT ( 'NONE',  ( 0.0000000000000000000, 0.0000000000000000000, 0.0000000000000000000 ) ) ;
#136 =( NAMED_UNIT ( * ) SI_UNIT ( $, .STERADIAN. ) SOLID_ANGLE_UNIT ( ) );
#137 = LOCAL_TIME ( 9, 40, 4.000000000000000000, #47 ) ;
#138 = ORIENTED_EDGE ( 'NONE', *, *, #7, .T. ) ;
#139 =( GEOMETRIC_REPRESENTATION_CONTEXT ( 3 ) GLOBAL_UNCERTAINTY_ASSIGNED_CONTEXT ( ( #120 ) ) GLOBAL_UNIT_ASSIGNED_CONTEXT ( ( #71, #101, #136 ) ) REPRESENTATION_CONTEXT ( 'NONE', 'WORKASPACE' ) );
#140 = CIRCLE ( 'NONE', #34, 12.69999999999999929 ) ;
#141 = CIRCLE ( 'NONE', #30, 12.69999999999999929 ) ;
#142 = PERSON_AND_ORGANIZATION ( #82, #130 ) ;
#143 = LINE ( 'NONE', #160, #168 ) ;
#144 = CC_DESIGN_PERSON_AND_ORGANIZATION_ASSIGNMENT ( #53, #26, ( #169 ) ) ;
#145 = ORIENTED_EDGE ( 'NONE', *, *, #16, .F. ) ;
#146 = DIRECTION ( 'NONE',  ( -1.000000000000000000, -0.0000000000000000000, -0.0000000000000000000 ) ) ;
#147 = CC_DESIGN_APPROVAL ( #51, ( #46 ) ) ;
#148 = VERTEX_POINT ( 'NONE', #158 ) ;
#149 = DIRECTION ( 'NONE',  ( -1.000000000000000000, -0.0000000000000000000, -0.0000000000000000000 ) ) ;
#150 = ORIENTED_EDGE ( 'NONE', *, *, #155, .F. ) ;
#151 = APPROVAL_STATUS ( 'not_yet_approved' ) ;
#152 = CC_DESIGN_SECURITY_CLASSIFICATION ( #46, ( #62 ) ) ;
#153 = FACE_OUTER_BOUND ( 'NONE', #154, .T. ) ;
#154 = EDGE_LOOP ( 'NONE', ( #103, #150 ) ) ;
#155 = EDGE_CURVE ( 'NONE', #148, #44, #133, .T. ) ;
#156 = DATE_AND_TIME ( #15, #12 ) ;
#157 = CYLINDRICAL_SURFACE ( 'NONE', #21, 12.69999999999999929 ) ;
#158 = CARTESIAN_POINT ( 'NONE',  ( -1.500000000000000000, 1.555301434917138433E-15, -12.69999999999999929 ) ) ;
#159 = CARTESIAN_POINT ( 'NONE',  ( -1.500000000000000000, 0.0000000000000000000, 12.69999999999999929 ) ) ;
#160 = CARTESIAN_POINT ( 'NONE',  ( 1.500000000000000000, 0.0000000000000000000, 12.69999999999999929 ) ) ;
#161 = ADVANCED_BREP_SHAPE_REPRESENTATION ( 'Web Model 14684_14693', ( #60, #57 ), #139 ) ;
#162 = CARTESIAN_POINT ( 'NONE',  ( 1.500000000000000000, 1.555301434917138433E-15, -12.69999999999999929 ) ) ;
#163 = CARTESIAN_POINT ( 'NONE',  ( -1.500000000000000000, 0.0000000000000000000, 0.0000000000000000000 ) ) ;
#164 = DIRECTION ( 'NONE',  ( 0.0000000000000000000, 0.0000000000000000000, 1.000000000000000000 ) ) ;
#165 = DATE_TIME_ROLE ( 'classification_date' ) ;
#166 = CALENDAR_DATE ( 2020, 13, 4 ) ;
#167 = ADVANCED_FACE ( 'NONE', ( #73 ), #157, .T. ) ;
#168 = VECTOR ( 'NONE', #9, 1000.000000000000000 ) ;
#169 = PRODUCT ( 'Web Model 14684_14693', 'Web Model 14684_14693', '', ( #91 ) ) ;
#170 = ORIENTED_EDGE ( 'NONE', *, *, #77, .T. ) ;
#171 = DESIGN_CONTEXT ( 'detailed design', #56, 'design' ) ;
#172 = DIRECTION ( 'NONE',  ( 0.0000000000000000000, 0.0000000000000000000, 1.000000000000000000 ) ) ;
#173 = SHAPE_DEFINITION_REPRESENTATION ( #84, #161 ) ;
#174 = PERSON_AND_ORGANIZATION_ROLE ( 'design_supplier' ) ;
#175 = AXIS2_PLACEMENT_3D ( 'NONE', #33, #111, #134 ) ;
ENDSEC;
END-ISO-10303-21;
