ISO-10303-21;
HEADER;
FILE_DESCRIPTION (( 'STEP AP203' ),
    '1' );
FILE_NAME ('4340-E0W.STEP',
    '2015-06-17T20:49:02',
    ( 'admin' ),
    ( '' ),
    'SwSTEP 2.0',
    'SolidWorks 2014',
    '' );
FILE_SCHEMA (( 'CONFIG_CONTROL_DESIGN' ));
ENDSEC;

DATA;
#1 = APPROVAL ( #257, 'UNSPECIFIED' ) ;
#2 = DIRECTION ( 'NONE',  ( -1.000000000000000000, 0.0000000000000000000, 0.0000000000000000000 ) ) ;
#3 = APPROVAL_STATUS ( 'not_yet_approved' ) ;
#4 = CIRCLE ( 'NONE', #10, 919.6000000000000200 ) ;
#5 = DATE_AND_TIME ( #312, #190 ) ;
#6 = CARTESIAN_POINT ( 'NONE',  ( -25.39999999999999900, 3.110602869834276900E-015, -1.249150121989561800 ) ) ;
#7 = DESIGN_CONTEXT ( 'detailed design', #214, 'design' ) ;
#8 = DIRECTION ( 'NONE',  ( -1.000000000000000000, 0.0000000000000000000, 0.0000000000000000000 ) ) ;
#9 = PERSON_AND_ORGANIZATION_ROLE ( 'creator' ) ;
#10 = AXIS2_PLACEMENT_3D ( 'NONE', #288, #123, #69 ) ;
#11 = VERTEX_POINT ( 'NONE', #79 ) ;
#12 = EDGE_CURVE ( 'NONE', #203, #41, #275, .T. ) ;
#13 = DIRECTION ( 'NONE',  ( -1.000000000000000000, 0.0000000000000000000, 0.0000000000000000000 ) ) ;
#14 = CARTESIAN_POINT ( 'NONE',  ( 0.0000000000000000000, 5.630925982479529600E-014, 1.850000000000018300 ) ) ;
#15 = LINE ( 'NONE', #336, #299 ) ;
#16 = ORIENTED_EDGE ( 'NONE', *, *, #307, .T. ) ;
#17 = CARTESIAN_POINT ( 'NONE',  ( 25.39999999999999900, 0.0000000000000000000, -1.249150121989561800 ) ) ;
#18 = DIRECTION ( 'NONE',  ( -0.0000000000000000000, -0.0000000000000000000, 1.000000000000000000 ) ) ;
#19 = CARTESIAN_POINT ( 'NONE',  ( 0.0000000000000000000, 0.0000000000000000000, -1.506020373806427100 ) ) ;
#20 = VERTEX_POINT ( 'NONE', #17 ) ;
#21 = AXIS2_PLACEMENT_3D ( 'NONE', #272, #13, #150 ) ;
#22 = FACE_OUTER_BOUND ( 'NONE', #339, .T. ) ;
#23 = CC_DESIGN_APPROVAL ( #1, ( #337 ) ) ;
#24 = AXIS2_PLACEMENT_3D ( 'NONE', #155, #321, #8 ) ;
#25 = CALENDAR_DATE ( 2015, 17, 6 ) ;
#26 = ORIENTED_EDGE ( 'NONE', *, *, #359, .T. ) ;
#27 = EDGE_LOOP ( 'NONE', ( #283, #224, #60, #117, #213 ) ) ;
#28 = DIRECTION ( 'NONE',  ( 1.000000000000000000, 0.0000000000000000000, 0.0000000000000000000 ) ) ;
#29 = AXIS2_PLACEMENT_3D ( 'NONE', #70, #187, #156 ) ;
#30 = PERSON_AND_ORGANIZATION ( #52, #63 ) ;
#31 = DATE_AND_TIME ( #279, #255 ) ;
#32 = DIRECTION ( 'NONE',  ( 1.000000000000000000, 0.0000000000000000000, 0.0000000000000000000 ) ) ;
#33 = EDGE_CURVE ( 'NONE', #129, #178, #15, .T. ) ;
#34 = FACE_OUTER_BOUND ( 'NONE', #62, .T. ) ;
#35 = VERTEX_POINT ( 'NONE', #14 ) ;
#36 = CARTESIAN_POINT ( 'NONE',  ( 0.0000000000000000000, 25.15012935378218400, 1.506020373806482600 ) ) ;
#37 = DIRECTION ( 'NONE',  ( 0.0000000000000000000, 0.0000000000000000000, -1.000000000000000000 ) ) ;
#38 = FACE_OUTER_BOUND ( 'NONE', #27, .T. ) ;
#39 = AXIS2_PLACEMENT_3D ( 'NONE', #198, #153, #229 ) ;
#40 = CARTESIAN_POINT ( 'NONE',  ( 0.0000000000000000000, 0.0000000000000000000, -1.249150121989561800 ) ) ;
#41 = VERTEX_POINT ( 'NONE', #85 ) ;
#42 = CYLINDRICAL_SURFACE ( 'NONE', #84, 25.39999999999999900 ) ;
#43 = APPROVAL_DATE_TIME ( #5, #1 ) ;
#44 = AXIS2_PLACEMENT_3D ( 'NONE', #244, #56, #210 ) ;
#45 = PERSON_AND_ORGANIZATION ( #52, #63 ) ;
#46 = ADVANCED_FACE ( 'NONE', ( #38 ), #121, .T. ) ;
#47 = CARTESIAN_POINT ( 'NONE',  ( 25.15012935378381400, 3.080002541125324200E-015, 1.506020373806427100 ) ) ;
#48 = APPROVAL_DATE_TIME ( #57, #249 ) ;
#49 = SPHERICAL_SURFACE ( 'NONE', #29, 919.6000000000000200 ) ;
#50 = PRODUCT_DEFINITION_FORMATION_WITH_SPECIFIED_SOURCE ( 'ANY', '', #265, .NOT_KNOWN. ) ;
#51 = APPROVAL_ROLE ( '' ) ;
#52 = PERSON ( 'UNSPECIFIED', 'UNSPECIFIED', 'UNSPECIFIED', ('UNSPECIFIED'), ('UNSPECIFIED'), ('UNSPECIFIED') ) ;
#53 = FACE_OUTER_BOUND ( 'NONE', #286, .T. ) ;
#54 = VERTEX_POINT ( 'NONE', #140 ) ;
#55 = CARTESIAN_POINT ( 'NONE',  ( 0.0000000000000000000, 0.0000000000000000000, 1.506020373806538100 ) ) ;
#56 = DIRECTION ( 'NONE',  ( -1.000000000000000000, 0.0000000000000000000, 0.0000000000000000000 ) ) ;
#57 = DATE_AND_TIME ( #343, #313 ) ;
#58 = APPLICATION_CONTEXT ( 'configuration controlled 3d designs of mechanical parts and assemblies' ) ;
#59 = AXIS2_PLACEMENT_3D ( 'NONE', #344, #335, #103 ) ;
#60 = ORIENTED_EDGE ( 'NONE', *, *, #119, .F. ) ;
#61 = ORIENTED_EDGE ( 'NONE', *, *, #137, .T. ) ;
#62 = EDGE_LOOP ( 'NONE', ( #300, #76, #316, #122, #98 ) ) ;
#63 = ORGANIZATION ( 'UNSPECIFIED', 'UNSPECIFIED', '' ) ;
#64 = AXIS2_PLACEMENT_3D ( 'NONE', #298, #329, #148 ) ;
#65 = CALENDAR_DATE ( 2015, 17, 6 ) ;
#66 = VECTOR ( 'NONE', #81, 1000.000000000000100 ) ;
#67 = ORIENTED_EDGE ( 'NONE', *, *, #75, .T. ) ;
#68 = CARTESIAN_POINT ( 'NONE',  ( 0.0000000000000000000, 0.0000000000000000000, 917.7500000000000000 ) ) ;
#69 = DIRECTION ( 'NONE',  ( -1.224646799147353000E-016, -1.000000000000000000, 0.0000000000000000000 ) ) ;
#70 = CARTESIAN_POINT ( 'NONE',  ( 0.0000000000000000000, 0.0000000000000000000, 917.7500000000000000 ) ) ;
#71 = CIRCLE ( 'NONE', #305, 25.15012935378372900 ) ;
#72 = CARTESIAN_POINT ( 'NONE',  ( 0.0000000000000000000, 5.630925982479529600E-014, -1.850000000000018300 ) ) ;
#73 = CARTESIAN_POINT ( 'NONE',  ( 0.0000000000000000000, 0.0000000000000000000, -1.506020373806427100 ) ) ;
#74 = ADVANCED_FACE ( 'NONE', ( #145 ), #240, .T. ) ;
#75 = EDGE_CURVE ( 'NONE', #233, #352, #338, .T. ) ;
#76 = ORIENTED_EDGE ( 'NONE', *, *, #330, .F. ) ;
#77 = DATE_AND_TIME ( #65, #308 ) ;
#78 = VECTOR ( 'NONE', #18, 1000.000000000000000 ) ;
#79 = CARTESIAN_POINT ( 'NONE',  ( -25.15012935378372900, 3.095302705479795000E-015, -1.506020373806427100 ) ) ;
#80 = CC_DESIGN_DATE_AND_TIME_ASSIGNMENT ( #31, #182, ( #337 ) ) ;
#81 = DIRECTION ( 'NONE',  ( 0.6972730079911786400, 0.0000000000000000000, 0.7168056586878578400 ) ) ;
#82 = EDGE_CURVE ( 'NONE', #178, #208, #271, .T. ) ;
#83 = ORIENTED_EDGE ( 'NONE', *, *, #124, .T. ) ;
#84 = AXIS2_PLACEMENT_3D ( 'NONE', #221, #264, #180 ) ;
#85 = CARTESIAN_POINT ( 'NONE',  ( -3.080002541125389600E-015, -25.15012935378435400, -1.506020373806371500 ) ) ;
#86 = UNCERTAINTY_MEASURE_WITH_UNIT (LENGTH_MEASURE( 1.000000000000000100E-005 ), #322, 'distance_accuracy_value', 'NONE');
#87 = ORIENTED_EDGE ( 'NONE', *, *, #227, .F. ) ;
#88 = AXIS2_PLACEMENT_3D ( 'NONE', #136, #179, #164 ) ;
#89 = DIRECTION ( 'NONE',  ( -0.0000000000000000000, -0.0000000000000000000, 1.000000000000000000 ) ) ;
#90 = SHAPE_DEFINITION_REPRESENTATION ( #165, #107 ) ;
#91 = ORIENTED_EDGE ( 'NONE', *, *, #353, .F. ) ;
#92 = CC_DESIGN_PERSON_AND_ORGANIZATION_ASSIGNMENT ( #242, #365, ( #337 ) ) ;
#93 = VECTOR ( 'NONE', #228, 1000.000000000000100 ) ;
#94 = DIRECTION ( 'NONE',  ( 0.0000000000000000000, 0.0000000000000000000, -1.000000000000000000 ) ) ;
#95 = PERSON_AND_ORGANIZATION ( #52, #63 ) ;
#96 = CARTESIAN_POINT ( 'NONE',  ( 0.0000000000000000000, 0.0000000000000000000, 1.506020373806538100 ) ) ;
#97 = MECHANICAL_CONTEXT ( 'NONE', #58, 'mechanical' ) ;
#98 = ORIENTED_EDGE ( 'NONE', *, *, #307, .F. ) ;
#99 =( NAMED_UNIT ( * ) SI_UNIT ( $, .STERADIAN. ) SOLID_ANGLE_UNIT ( ) );
#100 = AXIS2_PLACEMENT_3D ( 'NONE', #360, #89, #357 ) ;
#101 = ORIENTED_EDGE ( 'NONE', *, *, #297, .F. ) ;
#102 = EDGE_CURVE ( 'NONE', #120, #178, #358, .T. ) ;
#103 = DIRECTION ( 'NONE',  ( 0.0000000000000000000, 1.000000000000000000, 0.0000000000000000000 ) ) ;
#104 = SECURITY_CLASSIFICATION_LEVEL ( 'unclassified' ) ;
#105 = DATE_AND_TIME ( #25, #149 ) ;
#106 = DIRECTION ( 'NONE',  ( -0.0000000000000000000, -0.0000000000000000000, 1.000000000000000000 ) ) ;
#107 = ADVANCED_BREP_SHAPE_REPRESENTATION ( '4340-E0W', ( #252, #267 ), #293 ) ;
#108 = AXIS2_PLACEMENT_3D ( 'NONE', #96, #342, #218 ) ;
#109 = ADVANCED_FACE ( 'NONE', ( #22 ), #367, .T. ) ;
#110 = DIRECTION ( 'NONE',  ( 1.000000000000000000, 0.0000000000000000000, 0.0000000000000000000 ) ) ;
#111 = DIRECTION ( 'NONE',  ( 1.000000000000000000, 0.0000000000000000000, 0.0000000000000000000 ) ) ;
#112 = CARTESIAN_POINT ( 'NONE',  ( 25.39999999999999900, 0.0000000000000000000, -1.249150121989561800 ) ) ;
#113 = DIRECTION ( 'NONE',  ( 1.000000000000000000, 0.0000000000000000000, 0.0000000000000000000 ) ) ;
#114 = LINE ( 'NONE', #6, #93 ) ;
#115 = DIRECTION ( 'NONE',  ( -0.0000000000000000000, -0.0000000000000000000, 1.000000000000000000 ) ) ;
#116 = AXIS2_PLACEMENT_3D ( 'NONE', #349, #37, #332 ) ;
#117 = ORIENTED_EDGE ( 'NONE', *, *, #258, .F. ) ;
#118 = AXIS2_PLACEMENT_3D ( 'NONE', #263, #230, #282 ) ;
#119 = EDGE_CURVE ( 'NONE', #20, #120, #361, .T. ) ;
#120 = VERTEX_POINT ( 'NONE', #125 ) ;
#121 = CONICAL_SURFACE ( 'NONE', #280, 25.39999999999999900, 0.7715860544734436400 ) ;
#122 = ORIENTED_EDGE ( 'NONE', *, *, #33, .T. ) ;
#123 = DIRECTION ( 'NONE',  ( -1.000000000000000000, 1.224646799147353200E-016, 0.0000000000000000000 ) ) ;
#124 = EDGE_CURVE ( 'NONE', #54, #147, #219, .T. ) ;
#125 = CARTESIAN_POINT ( 'NONE',  ( -25.39999999999999900, 3.110602869834276900E-015, -1.249150121989561800 ) ) ;
#126 = AXIS2_PLACEMENT_3D ( 'NONE', #327, #320, #328 ) ;
#127 = CIRCLE ( 'NONE', #100, 25.39999999999999900 ) ;
#128 = ADVANCED_FACE ( 'NONE', ( #226 ), #42, .T. ) ;
#129 = VERTEX_POINT ( 'NONE', #323 ) ;
#130 = CC_DESIGN_PERSON_AND_ORGANIZATION_ASSIGNMENT ( #197, #274, ( #363 ) ) ;
#131 = COORDINATED_UNIVERSAL_TIME_OFFSET ( 5, 0, .BEHIND. ) ;
#132 = EDGE_CURVE ( 'NONE', #120, #20, #127, .T. ) ;
#133 = CIRCLE ( 'NONE', #171, 25.15012935378379700 ) ;
#134 = EDGE_LOOP ( 'NONE', ( #260, #246, #144, #269, #347 ) ) ;
#135 = CC_DESIGN_PERSON_AND_ORGANIZATION_ASSIGNMENT ( #141, #9, ( #50 ) ) ;
#136 = CARTESIAN_POINT ( 'NONE',  ( 0.0000000000000000000, 0.0000000000000000000, 1.506020373806427100 ) ) ;
#137 = EDGE_CURVE ( 'NONE', #129, #189, #253, .T. ) ;
#138 = ORIENTED_EDGE ( 'NONE', *, *, #243, .T. ) ;
#139 = CARTESIAN_POINT ( 'NONE',  ( 0.0000000000000000000, 0.0000000000000000000, -917.7500000000000000 ) ) ;
#140 = CARTESIAN_POINT ( 'NONE',  ( 25.15012935378379700, 3.095302705479799700E-015, 1.506020373806538100 ) ) ;
#141 = PERSON_AND_ORGANIZATION ( #52, #63 ) ;
#142 = AXIS2_PLACEMENT_3D ( 'NONE', #139, #254, #94 ) ;
#143 = DIRECTION ( 'NONE',  ( -1.000000000000000000, 0.0000000000000000000, 0.0000000000000000000 ) ) ;
#144 = ORIENTED_EDGE ( 'NONE', *, *, #12, .F. ) ;
#145 = FACE_OUTER_BOUND ( 'NONE', #134, .T. ) ;
#146 = EDGE_LOOP ( 'NONE', ( #334, #26, #138, #222 ) ) ;
#147 = VERTEX_POINT ( 'NONE', #36 ) ;
#148 = DIRECTION ( 'NONE',  ( -1.000000000000000000, 0.0000000000000000000, 0.0000000000000000000 ) ) ;
#149 = LOCAL_TIME ( 16, 49, 2.000000000000000000, #306 ) ;
#150 = DIRECTION ( 'NONE',  ( 0.0000000000000000000, 1.000000000000000000, 0.0000000000000000000 ) ) ;
#151 = AXIS2_PLACEMENT_3D ( 'NONE', #202, #115, #111 ) ;
#152 = EDGE_CURVE ( 'NONE', #20, #208, #346, .T. ) ;
#153 = DIRECTION ( 'NONE',  ( -1.000000000000000000, 1.224646799147353200E-016, 0.0000000000000000000 ) ) ;
#154 = ORIENTED_EDGE ( 'NONE', *, *, #33, .F. ) ;
#155 = CARTESIAN_POINT ( 'NONE',  ( 0.0000000000000000000, 0.0000000000000000000, 1.249150121989672800 ) ) ;
#156 = DIRECTION ( 'NONE',  ( 0.0000000000000000000, 1.000000000000000000, 0.0000000000000000000 ) ) ;
#157 = ORIENTED_EDGE ( 'NONE', *, *, #297, .T. ) ;
#158 = DIRECTION ( 'NONE',  ( -0.0000000000000000000, -0.0000000000000000000, 1.000000000000000000 ) ) ;
#159 = CLOSED_SHELL ( 'NONE', ( #294, #46, #191, #109, #237, #216, #128, #348, #74, #318 ) ) ;
#160 = ORIENTED_EDGE ( 'NONE', *, *, #341, .T. ) ;
#161 = CARTESIAN_POINT ( 'NONE',  ( 0.0000000000000000000, 0.0000000000000000000, 1.249150121989672800 ) ) ;
#162 = AXIS2_PLACEMENT_3D ( 'NONE', #55, #268, #143 ) ;
#163 = CARTESIAN_POINT ( 'NONE',  ( 25.39999999999999900, 0.0000000000000000000, 1.850000000000000100 ) ) ;
#164 = DIRECTION ( 'NONE',  ( -1.000000000000000000, 0.0000000000000000000, 0.0000000000000000000 ) ) ;
#165 = PRODUCT_DEFINITION_SHAPE ( 'NONE', 'NONE',  #337 ) ;
#166 = DIRECTION ( 'NONE',  ( -0.0000000000000000000, -0.0000000000000000000, 1.000000000000000000 ) ) ;
#167 = EDGE_LOOP ( 'NONE', ( #205, #61, #206, #101 ) ) ;
#168 = ORIENTED_EDGE ( 'NONE', *, *, #359, .F. ) ;
#169 = CONICAL_SURFACE ( 'NONE', #88, 25.15012935378381400, 0.7715860544735347900 ) ;
#170 = CARTESIAN_POINT ( 'NONE',  ( -25.39999999999999900, 3.110602869834276900E-015, 1.850000000000000100 ) ) ;
#171 = AXIS2_PLACEMENT_3D ( 'NONE', #231, #278, #176 ) ;
#172 = CIRCLE ( 'NONE', #142, 919.5999999999999100 ) ;
#173 =( NAMED_UNIT ( * ) PLANE_ANGLE_UNIT ( ) SI_UNIT ( $, .RADIAN. ) );
#174 = AXIS2_PLACEMENT_3D ( 'NONE', #161, #204, #2 ) ;
#175 = APPROVAL_ROLE ( '' ) ;
#176 = DIRECTION ( 'NONE',  ( -1.000000000000000000, 0.0000000000000000000, 0.0000000000000000000 ) ) ;
#177 = CARTESIAN_POINT ( 'NONE',  ( 0.0000000000000000000, 0.0000000000000000000, 0.0000000000000000000 ) ) ;
#178 = VERTEX_POINT ( 'NONE', #273 ) ;
#179 = DIRECTION ( 'NONE',  ( 0.0000000000000000000, 0.0000000000000000000, -1.000000000000000000 ) ) ;
#180 = DIRECTION ( 'NONE',  ( 1.000000000000000000, 0.0000000000000000000, 0.0000000000000000000 ) ) ;
#181 = DIRECTION ( 'NONE',  ( 1.000000000000000000, 0.0000000000000000000, 0.0000000000000000000 ) ) ;
#182 = DATE_TIME_ROLE ( 'creation_date' ) ;
#183 = ORIENTED_EDGE ( 'NONE', *, *, #207, .T. ) ;
#184 = CIRCLE ( 'NONE', #301, 25.15012935378372900 ) ;
#185 = CC_DESIGN_DATE_AND_TIME_ASSIGNMENT ( #105, #236, ( #363 ) ) ;
#186 = APPLICATION_PROTOCOL_DEFINITION ( 'international standard', 'config_control_design', 1994, #214 ) ;
#187 = DIRECTION ( 'NONE',  ( -1.000000000000000000, 0.0000000000000000000, 0.0000000000000000000 ) ) ;
#188 = EDGE_LOOP ( 'NONE', ( #200, #183, #315, #154, #91 ) ) ;
#189 = VERTEX_POINT ( 'NONE', #245 ) ;
#190 = LOCAL_TIME ( 16, 49, 2.000000000000000000, #131 ) ;
#191 = ADVANCED_FACE ( 'NONE', ( #333 ), #49, .T. ) ;
#192 = CARTESIAN_POINT ( 'NONE',  ( 0.0000000000000000000, 0.0000000000000000000, -1.249150121989561800 ) ) ;
#193 = PERSON_AND_ORGANIZATION_ROLE ( 'design_supplier' ) ;
#194 = APPROVAL_STATUS ( 'not_yet_approved' ) ;
#195 = AXIS2_PLACEMENT_3D ( 'NONE', #68, #28, #309 ) ;
#196 = EDGE_CURVE ( 'NONE', #11, #120, #114, .T. ) ;
#197 = PERSON_AND_ORGANIZATION ( #52, #63 ) ;
#198 = CARTESIAN_POINT ( 'NONE',  ( 0.0000000000000000000, 0.0000000000000000000, -917.7500000000000000 ) ) ;
#199 = FACE_OUTER_BOUND ( 'NONE', #188, .T. ) ;
#200 = ORIENTED_EDGE ( 'NONE', *, *, #124, .F. ) ;
#201 = AXIS2_PLACEMENT_3D ( 'NONE', #192, #158, #113 ) ;
#202 = CARTESIAN_POINT ( 'NONE',  ( 0.0000000000000000000, 0.0000000000000000000, -1.249150121989561800 ) ) ;
#203 = VERTEX_POINT ( 'NONE', #220 ) ;
#204 = DIRECTION ( 'NONE',  ( 0.0000000000000000000, 0.0000000000000000000, -1.000000000000000000 ) ) ;
#205 = ORIENTED_EDGE ( 'NONE', *, *, #353, .T. ) ;
#206 = ORIENTED_EDGE ( 'NONE', *, *, #227, .T. ) ;
#207 = EDGE_CURVE ( 'NONE', #54, #208, #314, .T. ) ;
#208 = VERTEX_POINT ( 'NONE', #345 ) ;
#209 = APPROVAL_PERSON_ORGANIZATION ( #292, #248, #310 ) ;
#210 = DIRECTION ( 'NONE',  ( 0.0000000000000000000, 1.000000000000000000, 0.0000000000000000000 ) ) ;
#211 = FACE_OUTER_BOUND ( 'NONE', #290, .T. ) ;
#212 = ORIENTED_EDGE ( 'NONE', *, *, #132, .T. ) ;
#213 = ORIENTED_EDGE ( 'NONE', *, *, #341, .F. ) ;
#214 = APPLICATION_CONTEXT ( 'configuration controlled 3d designs of mechanical parts and assemblies' ) ;
#215 = DIRECTION ( 'NONE',  ( 0.6972730079912440300, 8.539131573683238800E-017, -0.7168056586877942200 ) ) ;
#216 = ADVANCED_FACE ( 'NONE', ( #53 ), #270, .T. ) ;
#217 = PERSON_AND_ORGANIZATION ( #52, #63 ) ;
#218 = DIRECTION ( 'NONE',  ( -1.000000000000000000, 0.0000000000000000000, 0.0000000000000000000 ) ) ;
#219 = CIRCLE ( 'NONE', #162, 25.15012935378379700 ) ;
#220 = CARTESIAN_POINT ( 'NONE',  ( 25.15012935378372900, 0.0000000000000000000, -1.506020373806427100 ) ) ;
#221 = CARTESIAN_POINT ( 'NONE',  ( 0.0000000000000000000, 0.0000000000000000000, 1.850000000000000100 ) ) ;
#222 = ORIENTED_EDGE ( 'NONE', *, *, #276, .T. ) ;
#223 = CARTESIAN_POINT ( 'NONE',  ( 0.0000000000000000000, 0.0000000000000000000, -1.506020373806427100 ) ) ;
#224 = ORIENTED_EDGE ( 'NONE', *, *, #196, .T. ) ;
#225 = APPROVAL_DATE_TIME ( #77, #248 ) ;
#226 = FACE_OUTER_BOUND ( 'NONE', #356, .T. ) ;
#227 = EDGE_CURVE ( 'NONE', #189, #35, #355, .T. ) ;
#228 = DIRECTION ( 'NONE',  ( -0.6972730079911786400, 8.539131573682438900E-017, 0.7168056586878578400 ) ) ;
#229 = DIRECTION ( 'NONE',  ( -1.224646799147353000E-016, -1.000000000000000000, 0.0000000000000000000 ) ) ;
#230 = DIRECTION ( 'NONE',  ( -0.0000000000000000000, -0.0000000000000000000, 1.000000000000000000 ) ) ;
#231 = CARTESIAN_POINT ( 'NONE',  ( 0.0000000000000000000, 0.0000000000000000000, 1.506020373806538100 ) ) ;
#232 = VECTOR ( 'NONE', #215, 1000.000000000000000 ) ;
#233 = VERTEX_POINT ( 'NONE', #72 ) ;
#234 = VECTOR ( 'NONE', #106, 1000.000000000000000 ) ;
#235 = DIRECTION ( 'NONE',  ( 1.000000000000000000, 0.0000000000000000000, 0.0000000000000000000 ) ) ;
#236 = DATE_TIME_ROLE ( 'classification_date' ) ;
#237 = ADVANCED_FACE ( 'NONE', ( #296 ), #311, .T. ) ;
#238 = LINE ( 'NONE', #112, #66 ) ;
#239 = ORIENTED_EDGE ( 'NONE', *, *, #152, .F. ) ;
#240 = CONICAL_SURFACE ( 'NONE', #201, 25.39999999999999900, 0.7715860544734436400 ) ;
#241 = DIRECTION ( 'NONE',  ( 1.000000000000000000, 0.0000000000000000000, 0.0000000000000000000 ) ) ;
#242 = PERSON_AND_ORGANIZATION ( #52, #63 ) ;
#243 = EDGE_CURVE ( 'NONE', #41, #11, #184, .T. ) ;
#244 = CARTESIAN_POINT ( 'NONE',  ( 0.0000000000000000000, 0.0000000000000000000, -917.7500000000000000 ) ) ;
#245 = CARTESIAN_POINT ( 'NONE',  ( -3.080002541125123800E-015, -25.15012935378218400, 1.506020373806482600 ) ) ;
#246 = ORIENTED_EDGE ( 'NONE', *, *, #243, .F. ) ;
#247 = APPLICATION_PROTOCOL_DEFINITION ( 'international standard', 'config_control_design', 1994, #58 ) ;
#248 = APPROVAL ( #194, 'UNSPECIFIED' ) ;
#249 = APPROVAL ( #3, 'UNSPECIFIED' ) ;
#250 = CC_DESIGN_PERSON_AND_ORGANIZATION_ASSIGNMENT ( #45, #266, ( #265 ) ) ;
#251 = CARTESIAN_POINT ( 'NONE',  ( 0.0000000000000000000, 25.15012935378435400, -1.506020373806371500 ) ) ;
#252 = MANIFOLD_SOLID_BREP ( '4340-001-1-solid1', #159 ) ;
#253 = CIRCLE ( 'NONE', #108, 25.15012935378379700 ) ;
#254 = DIRECTION ( 'NONE',  ( 1.000000000000000000, -0.0000000000000000000, 0.0000000000000000000 ) ) ;
#255 = LOCAL_TIME ( 16, 49, 2.000000000000000000, #304 ) ;
#256 = DIRECTION ( 'NONE',  ( 0.0000000000000000000, 0.0000000000000000000, -1.000000000000000000 ) ) ;
#257 = APPROVAL_STATUS ( 'not_yet_approved' ) ;
#258 = EDGE_CURVE ( 'NONE', #203, #20, #238, .T. ) ;
#259 = PRODUCT_RELATED_PRODUCT_CATEGORY ( 'detail', '', ( #265 ) ) ;
#260 = ORIENTED_EDGE ( 'NONE', *, *, #196, .F. ) ;
#261 = CIRCLE ( 'NONE', #24, 25.39999999999999900 ) ;
#262 = APPROVAL_PERSON_ORGANIZATION ( #95, #1, #175 ) ;
#263 = CARTESIAN_POINT ( 'NONE',  ( 0.0000000000000000000, 0.0000000000000000000, 1.850000000000000100 ) ) ;
#264 = DIRECTION ( 'NONE',  ( -0.0000000000000000000, -0.0000000000000000000, 1.000000000000000000 ) ) ;
#265 = PRODUCT ( '4340-E0W', '4340-E0W', '', ( #97 ) ) ;
#266 = PERSON_AND_ORGANIZATION_ROLE ( 'design_owner' ) ;
#267 = AXIS2_PLACEMENT_3D ( 'NONE', #177, #364, #181 ) ;
#268 = DIRECTION ( 'NONE',  ( -0.0000000000000000000, -0.0000000000000000000, 1.000000000000000000 ) ) ;
#269 = ORIENTED_EDGE ( 'NONE', *, *, #258, .T. ) ;
#270 = SPHERICAL_SURFACE ( 'NONE', #21, 919.6000000000000200 ) ;
#271 = CIRCLE ( 'NONE', #174, 25.39999999999999900 ) ;
#272 = CARTESIAN_POINT ( 'NONE',  ( 0.0000000000000000000, 0.0000000000000000000, -917.7500000000000000 ) ) ;
#273 = CARTESIAN_POINT ( 'NONE',  ( -25.39999999999999900, 3.110602869834276900E-015, 1.249150121989672800 ) ) ;
#274 = PERSON_AND_ORGANIZATION_ROLE ( 'classification_officer' ) ;
#275 = CIRCLE ( 'NONE', #319, 25.15012935378372900 ) ;
#276 = EDGE_CURVE ( 'NONE', #11, #352, #71, .T. ) ;
#277 = ORIENTED_EDGE ( 'NONE', *, *, #330, .T. ) ;
#278 = DIRECTION ( 'NONE',  ( -0.0000000000000000000, -0.0000000000000000000, 1.000000000000000000 ) ) ;
#279 = CALENDAR_DATE ( 2015, 17, 6 ) ;
#280 = AXIS2_PLACEMENT_3D ( 'NONE', #40, #166, #32 ) ;
#281 = COORDINATED_UNIVERSAL_TIME_OFFSET ( 5, 0, .BEHIND. ) ;
#282 = DIRECTION ( 'NONE',  ( 1.000000000000000000, 0.0000000000000000000, 0.0000000000000000000 ) ) ;
#283 = ORIENTED_EDGE ( 'NONE', *, *, #276, .F. ) ;
#284 = CC_DESIGN_APPROVAL ( #249, ( #50 ) ) ;
#285 = CIRCLE ( 'NONE', #126, 25.15012935378379700 ) ;
#286 = EDGE_LOOP ( 'NONE', ( #87, #277, #83, #157 ) ) ;
#287 = DIRECTION ( 'NONE',  ( 0.0000000000000000000, 0.0000000000000000000, -1.000000000000000000 ) ) ;
#288 = CARTESIAN_POINT ( 'NONE',  ( 0.0000000000000000000, 0.0000000000000000000, 917.7500000000000000 ) ) ;
#289 = SPHERICAL_SURFACE ( 'NONE', #59, 919.6000000000000200 ) ;
#290 = EDGE_LOOP ( 'NONE', ( #168, #67, #160, #331 ) ) ;
#291 = DIRECTION ( 'NONE',  ( -0.6972730079912440300, 0.0000000000000000000, -0.7168056586877942200 ) ) ;
#292 = PERSON_AND_ORGANIZATION ( #52, #63 ) ;
#293 =( GEOMETRIC_REPRESENTATION_CONTEXT ( 3 ) GLOBAL_UNCERTAINTY_ASSIGNED_CONTEXT ( ( #86 ) ) GLOBAL_UNIT_ASSIGNED_CONTEXT ( ( #322, #173, #99 ) ) REPRESENTATION_CONTEXT ( 'NONE', 'WORKASPACE' ) );
#294 = ADVANCED_FACE ( 'NONE', ( #199 ), #169, .T. ) ;
#295 = ORIENTED_EDGE ( 'NONE', *, *, #119, .T. ) ;
#296 = FACE_OUTER_BOUND ( 'NONE', #167, .T. ) ;
#297 = EDGE_CURVE ( 'NONE', #147, #35, #172, .T. ) ;
#298 = CARTESIAN_POINT ( 'NONE',  ( 0.0000000000000000000, 0.0000000000000000000, 1.506020373806427100 ) ) ;
#299 = VECTOR ( 'NONE', #291, 1000.000000000000000 ) ;
#300 = ORIENTED_EDGE ( 'NONE', *, *, #207, .F. ) ;
#301 = AXIS2_PLACEMENT_3D ( 'NONE', #73, #256, #235 ) ;
#302 = CC_DESIGN_PERSON_AND_ORGANIZATION_ASSIGNMENT ( #217, #193, ( #50 ) ) ;
#303 = CIRCLE ( 'NONE', #116, 25.15012935378372900 ) ;
#304 = COORDINATED_UNIVERSAL_TIME_OFFSET ( 5, 0, .BEHIND. ) ;
#305 = AXIS2_PLACEMENT_3D ( 'NONE', #19, #350, #110 ) ;
#306 = COORDINATED_UNIVERSAL_TIME_OFFSET ( 5, 0, .BEHIND. ) ;
#307 = EDGE_CURVE ( 'NONE', #208, #178, #261, .T. ) ;
#308 = LOCAL_TIME ( 16, 49, 2.000000000000000000, #317 ) ;
#309 = DIRECTION ( 'NONE',  ( 0.0000000000000000000, 0.0000000000000000000, -1.000000000000000000 ) ) ;
#310 = APPROVAL_ROLE ( '' ) ;
#311 = SPHERICAL_SURFACE ( 'NONE', #44, 919.6000000000000200 ) ;
#312 = CALENDAR_DATE ( 2015, 17, 6 ) ;
#313 = LOCAL_TIME ( 16, 49, 2.000000000000000000, #281 ) ;
#314 = LINE ( 'NONE', #47, #232 ) ;
#315 = ORIENTED_EDGE ( 'NONE', *, *, #82, .F. ) ;
#316 = ORIENTED_EDGE ( 'NONE', *, *, #137, .F. ) ;
#317 = COORDINATED_UNIVERSAL_TIME_OFFSET ( 5, 0, .BEHIND. ) ;
#318 = ADVANCED_FACE ( 'NONE', ( #34 ), #324, .T. ) ;
#319 = AXIS2_PLACEMENT_3D ( 'NONE', #223, #287, #241 ) ;
#320 = DIRECTION ( 'NONE',  ( -0.0000000000000000000, -0.0000000000000000000, 1.000000000000000000 ) ) ;
#321 = DIRECTION ( 'NONE',  ( 0.0000000000000000000, 0.0000000000000000000, -1.000000000000000000 ) ) ;
#322 =( LENGTH_UNIT ( ) NAMED_UNIT ( * ) SI_UNIT ( .MILLI., .METRE. ) );
#323 = CARTESIAN_POINT ( 'NONE',  ( -25.15012935378379700, 0.0000000000000000000, 1.506020373806538100 ) ) ;
#324 = CONICAL_SURFACE ( 'NONE', #64, 25.15012935378381400, 0.7715860544735347900 ) ;
#325 = ORIENTED_EDGE ( 'NONE', *, *, #152, .T. ) ;
#326 = ORIENTED_EDGE ( 'NONE', *, *, #102, .T. ) ;
#327 = CARTESIAN_POINT ( 'NONE',  ( 0.0000000000000000000, 0.0000000000000000000, 1.506020373806538100 ) ) ;
#328 = DIRECTION ( 'NONE',  ( -1.000000000000000000, 0.0000000000000000000, 0.0000000000000000000 ) ) ;
#329 = DIRECTION ( 'NONE',  ( 0.0000000000000000000, 0.0000000000000000000, -1.000000000000000000 ) ) ;
#330 = EDGE_CURVE ( 'NONE', #189, #54, #133, .T. ) ;
#331 = ORIENTED_EDGE ( 'NONE', *, *, #12, .T. ) ;
#332 = DIRECTION ( 'NONE',  ( 1.000000000000000000, 0.0000000000000000000, 0.0000000000000000000 ) ) ;
#333 = FACE_OUTER_BOUND ( 'NONE', #146, .T. ) ;
#334 = ORIENTED_EDGE ( 'NONE', *, *, #75, .F. ) ;
#335 = DIRECTION ( 'NONE',  ( -1.000000000000000000, 0.0000000000000000000, 0.0000000000000000000 ) ) ;
#336 = CARTESIAN_POINT ( 'NONE',  ( -25.15012935378381400, 0.0000000000000000000, 1.506020373806427100 ) ) ;
#337 = PRODUCT_DEFINITION ( 'UNKNOWN', '', #50, #7 ) ;
#338 = CIRCLE ( 'NONE', #195, 919.6000000000000200 ) ;
#339 = EDGE_LOOP ( 'NONE', ( #295, #326, #362, #239 ) ) ;
#340 = APPROVAL_PERSON_ORGANIZATION ( #30, #249, #51 ) ;
#341 = EDGE_CURVE ( 'NONE', #352, #203, #303, .T. ) ;
#342 = DIRECTION ( 'NONE',  ( -0.0000000000000000000, -0.0000000000000000000, 1.000000000000000000 ) ) ;
#343 = CALENDAR_DATE ( 2015, 17, 6 ) ;
#344 = CARTESIAN_POINT ( 'NONE',  ( 0.0000000000000000000, 0.0000000000000000000, 917.7500000000000000 ) ) ;
#345 = CARTESIAN_POINT ( 'NONE',  ( 25.39999999999999900, 0.0000000000000000000, 1.249150121989672800 ) ) ;
#346 = LINE ( 'NONE', #163, #78 ) ;
#347 = ORIENTED_EDGE ( 'NONE', *, *, #132, .F. ) ;
#348 = ADVANCED_FACE ( 'NONE', ( #211 ), #289, .T. ) ;
#349 = CARTESIAN_POINT ( 'NONE',  ( 0.0000000000000000000, 0.0000000000000000000, -1.506020373806427100 ) ) ;
#350 = DIRECTION ( 'NONE',  ( 0.0000000000000000000, 0.0000000000000000000, -1.000000000000000000 ) ) ;
#351 = CC_DESIGN_APPROVAL ( #248, ( #363 ) ) ;
#352 = VERTEX_POINT ( 'NONE', #251 ) ;
#353 = EDGE_CURVE ( 'NONE', #147, #129, #285, .T. ) ;
#354 = CC_DESIGN_SECURITY_CLASSIFICATION ( #363, ( #50 ) ) ;
#355 = CIRCLE ( 'NONE', #39, 919.6000000000000200 ) ;
#356 = EDGE_LOOP ( 'NONE', ( #366, #212, #325, #16 ) ) ;
#357 = DIRECTION ( 'NONE',  ( 1.000000000000000000, 0.0000000000000000000, 0.0000000000000000000 ) ) ;
#358 = LINE ( 'NONE', #170, #234 ) ;
#359 = EDGE_CURVE ( 'NONE', #233, #41, #4, .T. ) ;
#360 = CARTESIAN_POINT ( 'NONE',  ( 0.0000000000000000000, 0.0000000000000000000, -1.249150121989561800 ) ) ;
#361 = CIRCLE ( 'NONE', #151, 25.39999999999999900 ) ;
#362 = ORIENTED_EDGE ( 'NONE', *, *, #82, .T. ) ;
#363 = SECURITY_CLASSIFICATION ( '', '', #104 ) ;
#364 = DIRECTION ( 'NONE',  ( 0.0000000000000000000, 0.0000000000000000000, 1.000000000000000000 ) ) ;
#365 = PERSON_AND_ORGANIZATION_ROLE ( 'creator' ) ;
#366 = ORIENTED_EDGE ( 'NONE', *, *, #102, .F. ) ;
#367 = CYLINDRICAL_SURFACE ( 'NONE', #118, 25.39999999999999900 ) ;
ENDSEC;
END-ISO-10303-21;
