ISO-10303-21;
HEADER;
FILE_DESCRIPTION (( 'STEP AP203' ),
    '1' );
FILE_NAME ('Web Model 48915_48916.step',
    '2017-06-06T17:30:45',
    ( '' ),
    ( '' ),
    'SwSTEP 2.0',
    'SolidWorks 2016',
    '' );
FILE_SCHEMA (( 'CONFIG_CONTROL_DESIGN' ));
ENDSEC;

DATA;
#1 = APPROVAL ( #90, 'UNSPECIFIED' ) ;
#2 = APPROVAL_ROLE ( '' ) ;
#3 = CARTESIAN_POINT ( 'NONE',  ( -25.00000000000000000, 17.68000000000001000, 1.463672932855430800E-015 ) ) ;
#4 = DATE_TIME_ROLE ( 'creation_date' ) ;
#5 =( BOUNDED_CURVE ( )  B_SPLINE_CURVE ( 3, ( #161, #19, #45, #40 ),
 .UNSPECIFIED., .F., .F. ) 
 B_SPLINE_CURVE_WITH_KNOTS ( ( 4, 4 ),
 ( 3.141592653589793100, 6.283185307179586200 ),
 .UNSPECIFIED. ) 
 CURVE ( )  GEOMETRIC_REPRESENTATION_ITEM ( )  RATIONAL_B_SPLINE_CURVE ( ( 1.000000000000000000, 0.3333333333333333700, 0.3333333333333333700, 1.000000000000000000 ) ) 
 REPRESENTATION_ITEM ( '' )  );
#6 = ORIENTED_EDGE ( 'NONE', *, *, #102, .F. ) ;
#7 = CARTESIAN_POINT ( 'NONE',  ( -25.00000000000000000, 18.68000000000000700, 1.000000000000005800 ) ) ;
#8 = CARTESIAN_POINT ( 'NONE',  ( 0.0000000000000000000, 0.0000000000000000000, 0.0000000000000000000 ) ) ;
#9 = PRODUCT_DEFINITION_FORMATION_WITH_SPECIFIED_SOURCE ( 'ANY', '', #11, .NOT_KNOWN. ) ;
#10 = PERSON_AND_ORGANIZATION ( #162, #152 ) ;
#11 = PRODUCT ( 'Web Model 48915_48916', 'Web Model 48915_48916', '', ( #18 ) ) ;
#12 = VERTEX_POINT ( 'NONE', #43 ) ;
#13 = CARTESIAN_POINT ( 'NONE',  ( 0.0000000000000000000, 0.0000000000000000000, 0.0000000000000000000 ) ) ;
#14 = DIRECTION ( 'NONE',  ( -0.0000000000000000000, -0.7071067811865441300, -0.7071067811865510100 ) ) ;
#15 = APPROVAL_ROLE ( '' ) ;
#16 =( BOUNDED_CURVE ( )  B_SPLINE_CURVE ( 3, ( #134, #100, #173, #144 ),
 .UNSPECIFIED., .F., .F. ) 
 B_SPLINE_CURVE_WITH_KNOTS ( ( 4, 4 ),
 ( 3.141592653589793100, 6.283185307179586200 ),
 .UNSPECIFIED. ) 
 CURVE ( )  GEOMETRIC_REPRESENTATION_ITEM ( )  RATIONAL_B_SPLINE_CURVE ( ( 1.000000000000000000, 0.3333333333333333700, 0.3333333333333333700, 1.000000000000000000 ) ) 
 REPRESENTATION_ITEM ( '' )  );
#17 = COORDINATED_UNIVERSAL_TIME_OFFSET ( 5, 0, .BEHIND. ) ;
#18 = MECHANICAL_CONTEXT ( 'NONE', #119, 'mechanical' ) ;
#19 = CARTESIAN_POINT ( 'NONE',  ( -25.00000000000000000, 17.68000000000000300, 0.0000000000000000000 ) ) ;
#20 = CARTESIAN_POINT ( 'NONE',  ( 4.326320823190003100E-015, 18.67999999999999600, 1.000000000000005600 ) ) ;
#21 = PERSON_AND_ORGANIZATION ( #162, #152 ) ;
#22 = CARTESIAN_POINT ( 'NONE',  ( -2.795512324255811800E-015, -16.68000000000000700, 1.000000000000005100 ) ) ;
#23 = CC_DESIGN_PERSON_AND_ORGANIZATION_ASSIGNMENT ( #73, #83, ( #11 ) ) ;
#24 = CARTESIAN_POINT ( 'NONE',  ( -25.00000000000000400, -17.67999999999999300, 1.463672932855430800E-015 ) ) ;
#25 = LOCAL_TIME ( 13, 30, 45.00000000000000000, #17 ) ;
#26 = CARTESIAN_POINT ( 'NONE',  ( 4.326320823190003100E-015, 18.67999999999999600, 1.000000000000005100 ) ) ;
#27 = DIRECTION ( 'NONE',  ( 1.000000000000000000, 0.0000000000000000000, -0.0000000000000000000 ) ) ;
#28 =( LENGTH_UNIT ( ) NAMED_UNIT ( * ) SI_UNIT ( .MILLI., .METRE. ) );
#29 = APPROVAL_DATE_TIME ( #111, #104 ) ;
#30 = MANIFOLD_SOLID_BREP ( 'Boss-Extrude1', #124 ) ;
#31 =( GEOMETRIC_REPRESENTATION_CONTEXT ( 3 ) GLOBAL_UNCERTAINTY_ASSIGNED_CONTEXT ( ( #180 ) ) GLOBAL_UNIT_ASSIGNED_CONTEXT ( ( #28, #57, #140 ) ) REPRESENTATION_CONTEXT ( 'NONE', 'WORKASPACE' ) );
#32 = CC_DESIGN_PERSON_AND_ORGANIZATION_ASSIGNMENT ( #21, #80, ( #77 ) ) ;
#33 = VERTEX_POINT ( 'NONE', #133 ) ;
#34 = CALENDAR_DATE ( 2017, 6, 6 ) ;
#35 =( BOUNDED_SURFACE ( )  B_SPLINE_SURFACE ( 3, 1, ( 
 ( #60, #131 ),
 ( #52, #91 ),
 ( #157, #103 ),
 ( #20, #94 ) ),
 .UNSPECIFIED., .F., .F., .F. ) 
 B_SPLINE_SURFACE_WITH_KNOTS ( ( 4, 4 ),
 ( 2, 2 ),
 ( 0.0000000000000000000, 1.000000000000000000 ),
 ( 0.0000000000000000000, 1.000000000000000000 ),
 .UNSPECIFIED. ) 
 GEOMETRIC_REPRESENTATION_ITEM ( )  RATIONAL_B_SPLINE_SURFACE ( (
 ( 1.000000000000000000, 1.000000000000000000),
 ( 0.3333333333333333700, 0.3333333333333333700),
 ( 0.3333333333333333700, 0.3333333333333333700),
 ( 1.000000000000000000, 1.000000000000000000) ) ) 
 REPRESENTATION_ITEM ( '' )  SURFACE ( )  );
#36 = APPROVAL_DATE_TIME ( #182, #1 ) ;
#37 = PERSON_AND_ORGANIZATION ( #162, #152 ) ;
#38 = PLANE ( 'NONE',  #169 ) ;
#39 = PLANE ( 'NONE',  #150 ) ;
#40 = CARTESIAN_POINT ( 'NONE',  ( -2.795512324255811800E-015, -17.68000000000000000, 0.0000000000000000000 ) ) ;
#41 = DIRECTION ( 'NONE',  ( 0.0000000000000000000, 0.0000000000000000000, 1.000000000000000000 ) ) ;
#42 = CC_DESIGN_APPROVAL ( #1, ( #9 ) ) ;
#43 = CARTESIAN_POINT ( 'NONE',  ( 4.326320823190003100E-015, 18.67999999999999600, 1.000000000000005100 ) ) ;
#44 = LOCAL_TIME ( 13, 30, 45.00000000000000000, #93 ) ;
#45 = CARTESIAN_POINT ( 'NONE',  ( -25.00000000000000000, -17.67999999999999300, 0.0000000000000000000 ) ) ;
#46 = DIRECTION ( 'NONE',  ( 0.0000000000000000000, 0.0000000000000000000, 1.000000000000000000 ) ) ;
#47 = ORIENTED_EDGE ( 'NONE', *, *, #95, .F. ) ;
#48 = ORIENTED_EDGE ( 'NONE', *, *, #115, .F. ) ;
#49 = DATE_AND_TIME ( #34, #163 ) ;
#50 = SECURITY_CLASSIFICATION ( '', '', #145 ) ;
#51 = FACE_OUTER_BOUND ( 'NONE', #71, .T. ) ;
#52 = CARTESIAN_POINT ( 'NONE',  ( 25.00000000000000000, -16.68000000000001000, 1.000000000000005300 ) ) ;
#53 = CARTESIAN_POINT ( 'NONE',  ( 4.326320823190003100E-015, 17.68000000000000000, 0.0000000000000000000 ) ) ;
#54 = ORIENTED_EDGE ( 'NONE', *, *, #156, .F. ) ;
#55 = APPLICATION_PROTOCOL_DEFINITION ( 'international standard', 'config_control_design', 1994, #119 ) ;
#56 = CARTESIAN_POINT ( 'NONE',  ( 0.0000000000000000000, 0.9999999999999952300, 1.000000000000005100 ) ) ;
#57 =( NAMED_UNIT ( * ) PLANE_ANGLE_UNIT ( ) SI_UNIT ( $, .RADIAN. ) );
#58 = APPROVAL_PERSON_ORGANIZATION ( #85, #1, #15 ) ;
#59 = CARTESIAN_POINT ( 'NONE',  ( 4.326320823190003100E-015, 18.68000000000000000, 1.000000000000005800 ) ) ;
#60 = CARTESIAN_POINT ( 'NONE',  ( -2.795512324255811800E-015, -16.68000000000000700, 1.000000000000005600 ) ) ;
#61 = CARTESIAN_POINT ( 'NONE',  ( -2.795512324255811800E-015, -17.68000000000000000, 0.0000000000000000000 ) ) ;
#62 = CALENDAR_DATE ( 2017, 6, 6 ) ;
#63 = ADVANCED_FACE ( 'NONE', ( #149 ), #35, .F. ) ;
#64 = ORIENTED_EDGE ( 'NONE', *, *, #70, .F. ) ;
#65 = DIRECTION ( 'NONE',  ( 1.000000000000000000, 0.0000000000000000000, 0.0000000000000000000 ) ) ;
#66 = CARTESIAN_POINT ( 'NONE',  ( 25.00000000000000000, -17.68000000000000300, 0.0000000000000000000 ) ) ;
#67 = ORIENTED_EDGE ( 'NONE', *, *, #70, .T. ) ;
#68 = PRODUCT_RELATED_PRODUCT_CATEGORY ( 'detail', '', ( #11 ) ) ;
#69 =( BOUNDED_CURVE ( )  B_SPLINE_CURVE ( 3, ( #82, #158, #72, #26 ),
 .UNSPECIFIED., .F., .F. ) 
 B_SPLINE_CURVE_WITH_KNOTS ( ( 4, 4 ),
 ( 0.0000000000000000000, 3.141592653589793100 ),
 .UNSPECIFIED. ) 
 CURVE ( )  GEOMETRIC_REPRESENTATION_ITEM ( )  RATIONAL_B_SPLINE_CURVE ( ( 1.000000000000000000, 0.3333333333333333700, 0.3333333333333333700, 1.000000000000000000 ) ) 
 REPRESENTATION_ITEM ( '' )  );
#70 = EDGE_CURVE ( 'NONE', #151, #155, #183, .T. ) ;
#71 = EDGE_LOOP ( 'NONE', ( #47, #81, #178, #64 ) ) ;
#72 = CARTESIAN_POINT ( 'NONE',  ( 25.00000000000000000, 18.67999999999998900, 1.000000000000005100 ) ) ;
#73 = PERSON_AND_ORGANIZATION ( #162, #152 ) ;
#74 =( BOUNDED_SURFACE ( )  B_SPLINE_SURFACE ( 3, 1, ( 
 ( #59, #177 ),
 ( #7, #3 ),
 ( #101, #24 ),
 ( #75, #88 ) ),
 .UNSPECIFIED., .F., .F., .F. ) 
 B_SPLINE_SURFACE_WITH_KNOTS ( ( 4, 4 ),
 ( 2, 2 ),
 ( 0.0000000000000000000, 1.000000000000000000 ),
 ( 0.0000000000000000000, 1.000000000000000000 ),
 .UNSPECIFIED. ) 
 GEOMETRIC_REPRESENTATION_ITEM ( )  RATIONAL_B_SPLINE_SURFACE ( (
 ( 1.000000000000000000, 1.000000000000000000),
 ( 0.3333333333333333700, 0.3333333333333333700),
 ( 0.3333333333333333700, 0.3333333333333333700),
 ( 1.000000000000000000, 1.000000000000000000) ) ) 
 REPRESENTATION_ITEM ( '' )  SURFACE ( )  );
#75 = CARTESIAN_POINT ( 'NONE',  ( -2.795512324255811800E-015, -16.68000000000000300, 1.000000000000005800 ) ) ;
#76 = FACE_OUTER_BOUND ( 'NONE', #132, .T. ) ;
#77 = PRODUCT_DEFINITION ( 'UNKNOWN', '', #9, #142 ) ;
#78 = PERSON_AND_ORGANIZATION_ROLE ( 'design_supplier' ) ;
#79 = PERSON_AND_ORGANIZATION_ROLE ( 'classification_officer' ) ;
#80 = PERSON_AND_ORGANIZATION_ROLE ( 'creator' ) ;
#81 = ORIENTED_EDGE ( 'NONE', *, *, #102, .T. ) ;
#82 = CARTESIAN_POINT ( 'NONE',  ( -2.795512324255811800E-015, -16.68000000000000700, 1.000000000000005100 ) ) ;
#83 = PERSON_AND_ORGANIZATION_ROLE ( 'design_owner' ) ;
#84 = CALENDAR_DATE ( 2017, 6, 6 ) ;
#85 = PERSON_AND_ORGANIZATION ( #162, #152 ) ;
#86 = CC_DESIGN_APPROVAL ( #104, ( #77 ) ) ;
#87 = APPROVAL_STATUS ( 'not_yet_approved' ) ;
#88 = CARTESIAN_POINT ( 'NONE',  ( -2.795512324255811800E-015, -17.67999999999999600, 1.517883041479706200E-015 ) ) ;
#89 = SHAPE_DEFINITION_REPRESENTATION ( #153, #167 ) ;
#90 = APPROVAL_STATUS ( 'not_yet_approved' ) ;
#91 = CARTESIAN_POINT ( 'NONE',  ( 25.00000000000000000, -17.68000000000000300, 9.757819552369537900E-016 ) ) ;
#92 = ORIENTED_EDGE ( 'NONE', *, *, #95, .T. ) ;
#93 = COORDINATED_UNIVERSAL_TIME_OFFSET ( 5, 0, .BEHIND. ) ;
#94 = CARTESIAN_POINT ( 'NONE',  ( 4.326320823190003100E-015, 17.68000000000000000, 1.084202172485504400E-015 ) ) ;
#95 = EDGE_CURVE ( 'NONE', #12, #151, #16, .T. ) ;
#96 =( BOUNDED_CURVE ( )  B_SPLINE_CURVE ( 3, ( #122, #66, #164, #53 ),
 .UNSPECIFIED., .F., .T. ) 
 B_SPLINE_CURVE_WITH_KNOTS ( ( 4, 4 ),
 ( 0.0000000000000000000, 3.141592653589793100 ),
 .UNSPECIFIED. ) 
 CURVE ( )  GEOMETRIC_REPRESENTATION_ITEM ( )  RATIONAL_B_SPLINE_CURVE ( ( 1.000000000000000000, 0.3333333333333333700, 0.3333333333333333700, 1.000000000000000000 ) ) 
 REPRESENTATION_ITEM ( '' )  );
#97 = CALENDAR_DATE ( 2017, 6, 6 ) ;
#98 = COORDINATED_UNIVERSAL_TIME_OFFSET ( 5, 0, .BEHIND. ) ;
#99 = APPROVAL_PERSON_ORGANIZATION ( #160, #135, #2 ) ;
#100 = CARTESIAN_POINT ( 'NONE',  ( -25.00000000000000000, 18.68000000000000000, 1.000000000000005100 ) ) ;
#101 = CARTESIAN_POINT ( 'NONE',  ( -25.00000000000000400, -16.68000000000000000, 1.000000000000005800 ) ) ;
#102 = EDGE_CURVE ( 'NONE', #12, #33, #114, .T. ) ;
#103 = CARTESIAN_POINT ( 'NONE',  ( 25.00000000000000400, 17.67999999999999300, 9.757819552369537900E-016 ) ) ;
#104 = APPROVAL ( #120, 'UNSPECIFIED' ) ;
#105 = FACE_OUTER_BOUND ( 'NONE', #136, .T. ) ;
#106 = CARTESIAN_POINT ( 'NONE',  ( 4.326320823190003100E-015, 18.67999999999999600, 1.000000000000005100 ) ) ;
#107 = APPROVAL_DATE_TIME ( #141, #135 ) ;
#108 = EDGE_LOOP ( 'NONE', ( #6, #159, #67, #171 ) ) ;
#109 = DIRECTION ( 'NONE',  ( 0.0000000000000000000, 0.0000000000000000000, 1.000000000000000000 ) ) ;
#110 = ADVANCED_FACE ( 'NONE', ( #105 ), #38, .F. ) ;
#111 = DATE_AND_TIME ( #84, #25 ) ;
#112 = VECTOR ( 'NONE', #137, 1000.000000000000000 ) ;
#113 = APPROVAL_PERSON_ORGANIZATION ( #10, #104, #175 ) ;
#114 = LINE ( 'NONE', #106, #112 ) ;
#115 = EDGE_CURVE ( 'NONE', #33, #155, #5, .T. ) ;
#116 = AXIS2_PLACEMENT_3D ( 'NONE', #8, #46, #65 ) ;
#117 = ORIENTED_EDGE ( 'NONE', *, *, #125, .T. ) ;
#118 = COORDINATED_UNIVERSAL_TIME_OFFSET ( 5, 0, .BEHIND. ) ;
#119 = APPLICATION_CONTEXT ( 'configuration controlled 3d designs of mechanical parts and assemblies' ) ;
#120 = APPROVAL_STATUS ( 'not_yet_approved' ) ;
#121 = PERSON_AND_ORGANIZATION_ROLE ( 'creator' ) ;
#122 = CARTESIAN_POINT ( 'NONE',  ( -2.795512324255811800E-015, -17.68000000000000000, 0.0000000000000000000 ) ) ;
#123 = APPLICATION_CONTEXT ( 'configuration controlled 3d designs of mechanical parts and assemblies' ) ;
#124 = CLOSED_SHELL ( 'NONE', ( #165, #63, #179, #110 ) ) ;
#125 = EDGE_CURVE ( 'NONE', #151, #12, #69, .T. ) ;
#126 = CC_DESIGN_PERSON_AND_ORGANIZATION_ASSIGNMENT ( #168, #79, ( #50 ) ) ;
#127 = LOCAL_TIME ( 13, 30, 45.00000000000000000, #154 ) ;
#128 = PERSON_AND_ORGANIZATION ( #162, #152 ) ;
#129 = VECTOR ( 'NONE', #14, 1000.000000000000000 ) ;
#130 = CALENDAR_DATE ( 2017, 6, 6 ) ;
#131 = CARTESIAN_POINT ( 'NONE',  ( -2.795512324255811800E-015, -17.68000000000000000, 1.084202172485504400E-015 ) ) ;
#132 = EDGE_LOOP ( 'NONE', ( #117, #92 ) ) ;
#133 = CARTESIAN_POINT ( 'NONE',  ( 4.326320823190003100E-015, 17.68000000000000000, 0.0000000000000000000 ) ) ;
#134 = CARTESIAN_POINT ( 'NONE',  ( 4.326320823190003100E-015, 18.67999999999999600, 1.000000000000005100 ) ) ;
#135 = APPROVAL ( #87, 'UNSPECIFIED' ) ;
#136 = EDGE_LOOP ( 'NONE', ( #54, #48 ) ) ;
#137 = DIRECTION ( 'NONE',  ( -0.0000000000000000000, -0.7071067811865441300, -0.7071067811865510100 ) ) ;
#138 = DATE_TIME_ROLE ( 'classification_date' ) ;
#139 = DIRECTION ( 'NONE',  ( 1.000000000000000000, 0.0000000000000000000, -0.0000000000000000000 ) ) ;
#140 =( NAMED_UNIT ( * ) SI_UNIT ( $, .STERADIAN. ) SOLID_ANGLE_UNIT ( ) );
#141 = DATE_AND_TIME ( #130, #127 ) ;
#142 = DESIGN_CONTEXT ( 'detailed design', #123, 'design' ) ;
#143 = CC_DESIGN_APPROVAL ( #135, ( #50 ) ) ;
#144 = CARTESIAN_POINT ( 'NONE',  ( -2.795512324255811800E-015, -16.68000000000000700, 1.000000000000005100 ) ) ;
#145 = SECURITY_CLASSIFICATION_LEVEL ( 'unclassified' ) ;
#146 = APPLICATION_PROTOCOL_DEFINITION ( 'international standard', 'config_control_design', 1994, #123 ) ;
#147 = CARTESIAN_POINT ( 'NONE',  ( -2.795512324255811800E-015, -16.68000000000000700, 1.000000000000005100 ) ) ;
#148 = CC_DESIGN_DATE_AND_TIME_ASSIGNMENT ( #176, #138, ( #50 ) ) ;
#149 = FACE_OUTER_BOUND ( 'NONE', #108, .T. ) ;
#150 = AXIS2_PLACEMENT_3D ( 'NONE', #56, #41, #27 ) ;
#151 = VERTEX_POINT ( 'NONE', #147 ) ;
#152 = ORGANIZATION ( 'UNSPECIFIED', 'UNSPECIFIED', '' ) ;
#153 = PRODUCT_DEFINITION_SHAPE ( 'NONE', 'NONE',  #77 ) ;
#154 = COORDINATED_UNIVERSAL_TIME_OFFSET ( 5, 0, .BEHIND. ) ;
#155 = VERTEX_POINT ( 'NONE', #61 ) ;
#156 = EDGE_CURVE ( 'NONE', #155, #33, #96, .T. ) ;
#157 = CARTESIAN_POINT ( 'NONE',  ( 25.00000000000000400, 18.67999999999998600, 1.000000000000005300 ) ) ;
#158 = CARTESIAN_POINT ( 'NONE',  ( 25.00000000000000000, -16.68000000000001000, 1.000000000000005100 ) ) ;
#159 = ORIENTED_EDGE ( 'NONE', *, *, #125, .F. ) ;
#160 = PERSON_AND_ORGANIZATION ( #162, #152 ) ;
#161 = CARTESIAN_POINT ( 'NONE',  ( 4.326320823190003100E-015, 17.68000000000000000, 0.0000000000000000000 ) ) ;
#162 = PERSON ( 'UNSPECIFIED', 'UNSPECIFIED', 'UNSPECIFIED', ('UNSPECIFIED'), ('UNSPECIFIED'), ('UNSPECIFIED') ) ;
#163 = LOCAL_TIME ( 13, 30, 45.00000000000000000, #98 ) ;
#164 = CARTESIAN_POINT ( 'NONE',  ( 25.00000000000000000, 17.67999999999999300, 0.0000000000000000000 ) ) ;
#165 = ADVANCED_FACE ( 'NONE', ( #51 ), #74, .F. ) ;
#166 = CC_DESIGN_PERSON_AND_ORGANIZATION_ASSIGNMENT ( #37, #78, ( #9 ) ) ;
#167 = ADVANCED_BREP_SHAPE_REPRESENTATION ( 'Web Model 48915_48916', ( #30, #116 ), #31 ) ;
#168 = PERSON_AND_ORGANIZATION ( #162, #152 ) ;
#169 = AXIS2_PLACEMENT_3D ( 'NONE', #13, #109, #139 ) ;
#170 = CC_DESIGN_DATE_AND_TIME_ASSIGNMENT ( #49, #4, ( #77 ) ) ;
#171 = ORIENTED_EDGE ( 'NONE', *, *, #156, .T. ) ;
#172 = LOCAL_TIME ( 13, 30, 45.00000000000000000, #118 ) ;
#173 = CARTESIAN_POINT ( 'NONE',  ( -25.00000000000000000, -16.68000000000000300, 1.000000000000005100 ) ) ;
#174 = CC_DESIGN_PERSON_AND_ORGANIZATION_ASSIGNMENT ( #128, #121, ( #9 ) ) ;
#175 = APPROVAL_ROLE ( '' ) ;
#176 = DATE_AND_TIME ( #62, #44 ) ;
#177 = CARTESIAN_POINT ( 'NONE',  ( 4.326320823190003100E-015, 17.68000000000000300, 1.517883041479706200E-015 ) ) ;
#178 = ORIENTED_EDGE ( 'NONE', *, *, #115, .T. ) ;
#179 = ADVANCED_FACE ( 'NONE', ( #76 ), #39, .T. ) ;
#180 = UNCERTAINTY_MEASURE_WITH_UNIT (LENGTH_MEASURE( 1.000000000000000100E-005 ), #28, 'distance_accuracy_value', 'NONE');
#181 = CC_DESIGN_SECURITY_CLASSIFICATION ( #50, ( #9 ) ) ;
#182 = DATE_AND_TIME ( #97, #172 ) ;
#183 = LINE ( 'NONE', #22, #129 ) ;
ENDSEC;
END-ISO-10303-21;
