ISO-10303-21;
HEADER;
FILE_DESCRIPTION (( 'STEP AP203' ),
    '1' );
FILE_NAME ('Web Model 55257MX_15777.step',
    '2020-10-19T17:08:54',
    ( '' ),
    ( '' ),
    'SwSTEP 2.0',
    'SolidWorks 2018',
    '' );
FILE_SCHEMA (( 'CONFIG_CONTROL_DESIGN' ));
ENDSEC;

DATA;
#1 = LINE ( 'NONE', #19, #7 ) ;
#2 = ORIENTED_EDGE ( 'NONE', *, *, #202, .F. ) ;
#3 = EDGE_LOOP ( 'NONE', ( #166, #20, #228, #70 ) ) ;
#4 = EDGE_CURVE ( 'NONE', #31, #140, #148, .T. ) ;
#5 = SHAPE_DEFINITION_REPRESENTATION ( #99, #79 ) ;
#6 = APPROVAL_DATE_TIME ( #48, #150 ) ;
#7 = VECTOR ( 'NONE', #54, 1000.000000000000000 ) ;
#8 = CARTESIAN_POINT ( 'NONE',  ( 15.00000000000000355, -15.00000000000000000, 3.000000000000000000 ) ) ;
#9 = DIRECTION ( 'NONE',  ( -1.000000000000000000, -1.156482317317871478E-16, 0.0000000000000000000 ) ) ;
#10 = ADVANCED_FACE ( 'NONE', ( #146 ), #186, .F. ) ;
#11 = CALENDAR_DATE ( 2020, 19, 10 ) ;
#12 = COORDINATED_UNIVERSAL_TIME_OFFSET ( 5, 0, .BEHIND. ) ;
#13 = EDGE_CURVE ( 'NONE', #182, #175, #208, .T. ) ;
#14 = COORDINATED_UNIVERSAL_TIME_OFFSET ( 5, 0, .BEHIND. ) ;
#15 = COORDINATED_UNIVERSAL_TIME_OFFSET ( 5, 0, .BEHIND. ) ;
#16 = VECTOR ( 'NONE', #93, 1000.000000000000000 ) ;
#17 = EDGE_CURVE ( 'NONE', #144, #78, #218, .T. ) ;
#18 = CARTESIAN_POINT ( 'NONE',  ( -15.00000000000000000, -15.00000000000000355, 3.000000000000000000 ) ) ;
#19 = CARTESIAN_POINT ( 'NONE',  ( 15.00000000000000355, -15.00000000000000000, -3.000000000000000000 ) ) ;
#20 = ORIENTED_EDGE ( 'NONE', *, *, #90, .F. ) ;
#21 = DIRECTION ( 'NONE',  ( -1.156482317317871478E-16, 1.000000000000000000, 0.0000000000000000000 ) ) ;
#22 = DATE_AND_TIME ( #67, #121 ) ;
#23 = DIRECTION ( 'NONE',  ( 1.000000000000000000, 1.156482317317871478E-16, -0.0000000000000000000 ) ) ;
#24 = APPROVAL_STATUS ( 'not_yet_approved' ) ;
#25 = DATE_TIME_ROLE ( 'classification_date' ) ;
#26 = APPROVAL_ROLE ( '' ) ;
#27 = VERTEX_POINT ( 'NONE', #171 ) ;
#28 = PERSON_AND_ORGANIZATION ( #142, #180 ) ;
#29 = SECURITY_CLASSIFICATION ( '', '', #176 ) ;
#30 = APPROVAL_PERSON_ORGANIZATION ( #77, #150, #26 ) ;
#31 = VERTEX_POINT ( 'NONE', #214 ) ;
#32 = EDGE_CURVE ( 'NONE', #182, #27, #76, .T. ) ;
#33 = AXIS2_PLACEMENT_3D ( 'NONE', #134, #151, #227 ) ;
#34 = DIRECTION ( 'NONE',  ( 0.0000000000000000000, 0.0000000000000000000, -1.000000000000000000 ) ) ;
#35 = AXIS2_PLACEMENT_3D ( 'NONE', #18, #147, #34 ) ;
#36 = VECTOR ( 'NONE', #43, 1000.000000000000000 ) ;
#37 = CARTESIAN_POINT ( 'NONE',  ( 15.00000000000000355, -15.00000000000000000, 3.000000000000000000 ) ) ;
#38 = LOCAL_TIME ( 13, 8, 54.00000000000000000, #207 ) ;
#39 = CARTESIAN_POINT ( 'NONE',  ( 0.0000000000000000000, 0.0000000000000000000, -3.000000000000000000 ) ) ;
#40 = DIRECTION ( 'NONE',  ( 0.0000000000000000000, 0.0000000000000000000, 1.000000000000000000 ) ) ;
#41 = ORIENTED_EDGE ( 'NONE', *, *, #221, .T. ) ;
#42 = VERTEX_POINT ( 'NONE', #96 ) ;
#43 = DIRECTION ( 'NONE',  ( -0.0000000000000000000, -0.0000000000000000000, -1.000000000000000000 ) ) ;
#44 = LOCAL_TIME ( 13, 8, 54.00000000000000000, #12 ) ;
#45 = ORIENTED_EDGE ( 'NONE', *, *, #104, .F. ) ;
#46 = EDGE_LOOP ( 'NONE', ( #125, #45, #196, #108 ) ) ;
#47 = ORIENTED_EDGE ( 'NONE', *, *, #13, .F. ) ;
#48 = DATE_AND_TIME ( #11, #135 ) ;
#49 = VECTOR ( 'NONE', #216, 1000.000000000000000 ) ;
#50 = ORIENTED_EDGE ( 'NONE', *, *, #213, .F. ) ;
#51 = APPROVAL_DATE_TIME ( #22, #199 ) ;
#52 = DIRECTION ( 'NONE',  ( 1.000000000000000000, 1.156482317317871478E-16, -0.0000000000000000000 ) ) ;
#53 = DIRECTION ( 'NONE',  ( 0.0000000000000000000, -0.0000000000000000000, 1.000000000000000000 ) ) ;
#54 = DIRECTION ( 'NONE',  ( 0.0000000000000000000, 1.000000000000000000, 0.0000000000000000000 ) ) ;
#55 = DIRECTION ( 'NONE',  ( -1.000000000000000000, 0.0000000000000000000, 0.0000000000000000000 ) ) ;
#56 = FACE_OUTER_BOUND ( 'NONE', #129, .T. ) ;
#57 = CARTESIAN_POINT ( 'NONE',  ( 15.00000000000000355, 15.00000000000000178, -3.000000000000000000 ) ) ;
#58 = APPROVAL_STATUS ( 'not_yet_approved' ) ;
#59 = CC_DESIGN_SECURITY_CLASSIFICATION ( #29, ( #161 ) ) ;
#60 = CC_DESIGN_PERSON_AND_ORGANIZATION_ASSIGNMENT ( #128, #177, ( #103 ) ) ;
#61 = APPLICATION_PROTOCOL_DEFINITION ( 'international standard', 'config_control_design', 1994, #217 ) ;
#62 = VECTOR ( 'NONE', #233, 1000.000000000000000 ) ;
#63 = ORIENTED_EDGE ( 'NONE', *, *, #202, .T. ) ;
#64 = AXIS2_PLACEMENT_3D ( 'NONE', #39, #53, #112 ) ;
#65 = MANIFOLD_SOLID_BREP ( 'Boss-Extrude1', #98 ) ;
#66 = ORIENTED_EDGE ( 'NONE', *, *, #230, .T. ) ;
#67 = CALENDAR_DATE ( 2020, 19, 10 ) ;
#68 = CARTESIAN_POINT ( 'NONE',  ( 15.00000000000000355, 15.00000000000000178, 3.000000000000000000 ) ) ;
#69 = FACE_OUTER_BOUND ( 'NONE', #46, .T. ) ;
#70 = ORIENTED_EDGE ( 'NONE', *, *, #13, .T. ) ;
#71 = CARTESIAN_POINT ( 'NONE',  ( -15.00000000000000000, 14.99999999999999822, 3.000000000000000000 ) ) ;
#72 = CARTESIAN_POINT ( 'NONE',  ( 15.00000000000000355, 15.00000000000000178, 3.000000000000000000 ) ) ;
#73 = APPROVAL_DATE_TIME ( #204, #181 ) ;
#74 = CARTESIAN_POINT ( 'NONE',  ( 15.00000000000000355, 15.00000000000000178, 3.000000000000000000 ) ) ;
#75 = CARTESIAN_POINT ( 'NONE',  ( 15.00000000000000355, 15.00000000000000178, -3.000000000000000000 ) ) ;
#76 = LINE ( 'NONE', #72, #124 ) ;
#77 = PERSON_AND_ORGANIZATION ( #142, #180 ) ;
#78 = VERTEX_POINT ( 'NONE', #192 ) ;
#79 = ADVANCED_BREP_SHAPE_REPRESENTATION ( 'Web Model 55257MX_15777', ( #65, #178 ), #120 ) ;
#80 = AXIS2_PLACEMENT_3D ( 'NONE', #132, #55, #40 ) ;
#81 = DATE_TIME_ROLE ( 'creation_date' ) ;
#82 = ADVANCED_FACE ( 'NONE', ( #165 ), #149, .F. ) ;
#83 = EDGE_CURVE ( 'NONE', #42, #31, #226, .T. ) ;
#84 = PERSON_AND_ORGANIZATION_ROLE ( 'design_supplier' ) ;
#85 = ORIENTED_EDGE ( 'NONE', *, *, #4, .F. ) ;
#86 = VECTOR ( 'NONE', #188, 1000.000000000000000 ) ;
#87 = PRODUCT_DEFINITION ( 'UNKNOWN', '', #161, #189 ) ;
#88 = LOCAL_TIME ( 13, 8, 54.00000000000000000, #15 ) ;
#89 = ORIENTED_EDGE ( 'NONE', *, *, #104, .T. ) ;
#90 = EDGE_CURVE ( 'NONE', #27, #42, #215, .T. ) ;
#91 = PLANE ( 'NONE',  #33 ) ;
#92 = ADVANCED_FACE ( 'NONE', ( #157 ), #231, .F. ) ;
#93 = DIRECTION ( 'NONE',  ( -0.0000000000000000000, -1.000000000000000000, -0.0000000000000000000 ) ) ;
#94 = DATE_AND_TIME ( #105, #38 ) ;
#95 = CC_DESIGN_PERSON_AND_ORGANIZATION_ASSIGNMENT ( #185, #139, ( #161 ) ) ;
#96 = CARTESIAN_POINT ( 'NONE',  ( -15.00000000000000000, 14.99999999999999822, -3.000000000000000000 ) ) ;
#97 = CARTESIAN_POINT ( 'NONE',  ( 15.00000000000000355, -15.00000000000000000, 3.000000000000000000 ) ) ;
#98 = CLOSED_SHELL ( 'NONE', ( #210, #92, #82, #10, #111, #190 ) ) ;
#99 = PRODUCT_DEFINITION_SHAPE ( 'NONE', 'NONE',  #87 ) ;
#100 =( LENGTH_UNIT ( ) NAMED_UNIT ( * ) SI_UNIT ( .MILLI., .METRE. ) );
#101 = VECTOR ( 'NONE', #168, 1000.000000000000000 ) ;
#102 = DIRECTION ( 'NONE',  ( 0.0000000000000000000, 0.0000000000000000000, 1.000000000000000000 ) ) ;
#103 = PRODUCT ( 'Web Model 55257MX_15777', 'Web Model 55257MX_15777', '', ( #220 ) ) ;
#104 = EDGE_CURVE ( 'NONE', #144, #31, #206, .T. ) ;
#105 = CALENDAR_DATE ( 2020, 19, 10 ) ;
#106 = CC_DESIGN_PERSON_AND_ORGANIZATION_ASSIGNMENT ( #137, #84, ( #161 ) ) ;
#107 = APPROVAL_PERSON_ORGANIZATION ( #179, #181, #155 ) ;
#108 = ORIENTED_EDGE ( 'NONE', *, *, #90, .T. ) ;
#109 = EDGE_LOOP ( 'NONE', ( #158, #234, #114, #89 ) ) ;
#110 = DATE_AND_TIME ( #212, #44 ) ;
#111 = ADVANCED_FACE ( 'NONE', ( #162 ), #91, .T. ) ;
#112 = DIRECTION ( 'NONE',  ( 1.000000000000000000, 0.0000000000000000000, -0.0000000000000000000 ) ) ;
#113 = CARTESIAN_POINT ( 'NONE',  ( -15.00000000000000000, -15.00000000000000355, 3.000000000000000000 ) ) ;
#114 = ORIENTED_EDGE ( 'NONE', *, *, #17, .F. ) ;
#115 = CARTESIAN_POINT ( 'NONE',  ( 15.00000000000000355, -15.00000000000000000, -3.000000000000000000 ) ) ;
#116 = CARTESIAN_POINT ( 'NONE',  ( -15.00000000000000000, -15.00000000000000355, 3.000000000000000000 ) ) ;
#117 = APPLICATION_PROTOCOL_DEFINITION ( 'international standard', 'config_control_design', 1994, #174 ) ;
#118 =( NAMED_UNIT ( * ) SI_UNIT ( $, .STERADIAN. ) SOLID_ANGLE_UNIT ( ) );
#119 = DIRECTION ( 'NONE',  ( 1.000000000000000000, 0.0000000000000000000, 0.0000000000000000000 ) ) ;
#120 =( GEOMETRIC_REPRESENTATION_CONTEXT ( 3 ) GLOBAL_UNCERTAINTY_ASSIGNED_CONTEXT ( ( #225 ) ) GLOBAL_UNIT_ASSIGNED_CONTEXT ( ( #100, #235, #118 ) ) REPRESENTATION_CONTEXT ( 'NONE', 'WORKASPACE' ) );
#121 = LOCAL_TIME ( 13, 8, 54.00000000000000000, #172 ) ;
#122 = PRODUCT_RELATED_PRODUCT_CATEGORY ( 'detail', '', ( #103 ) ) ;
#123 = LINE ( 'NONE', #8, #36 ) ;
#124 = VECTOR ( 'NONE', #9, 1000.000000000000000 ) ;
#125 = ORIENTED_EDGE ( 'NONE', *, *, #83, .T. ) ;
#126 = PERSON_AND_ORGANIZATION ( #142, #180 ) ;
#127 = VECTOR ( 'NONE', #232, 1000.000000000000000 ) ;
#128 = PERSON_AND_ORGANIZATION ( #142, #180 ) ;
#129 = EDGE_LOOP ( 'NONE', ( #160, #153, #50, #85 ) ) ;
#130 = CC_DESIGN_APPROVAL ( #199, ( #29 ) ) ;
#131 = PLANE ( 'NONE',  #35 ) ;
#132 = CARTESIAN_POINT ( 'NONE',  ( 15.00000000000000355, -15.00000000000000000, 3.000000000000000000 ) ) ;
#133 = CARTESIAN_POINT ( 'NONE',  ( 15.00000000000000355, 15.00000000000000178, 3.000000000000000000 ) ) ;
#134 = CARTESIAN_POINT ( 'NONE',  ( 0.0000000000000000000, 0.0000000000000000000, 3.000000000000000000 ) ) ;
#135 = LOCAL_TIME ( 13, 8, 54.00000000000000000, #14 ) ;
#136 = CC_DESIGN_APPROVAL ( #150, ( #87 ) ) ;
#137 = PERSON_AND_ORGANIZATION ( #142, #180 ) ;
#138 = PERSON_AND_ORGANIZATION_ROLE ( 'creator' ) ;
#139 = PERSON_AND_ORGANIZATION_ROLE ( 'creator' ) ;
#140 = VERTEX_POINT ( 'NONE', #115 ) ;
#141 = VECTOR ( 'NONE', #194, 1000.000000000000000 ) ;
#142 = PERSON ( 'UNSPECIFIED', 'UNSPECIFIED', 'UNSPECIFIED', ('UNSPECIFIED'), ('UNSPECIFIED'), ('UNSPECIFIED') ) ;
#143 = EDGE_CURVE ( 'NONE', #175, #42, #169, .T. ) ;
#144 = VERTEX_POINT ( 'NONE', #191 ) ;
#145 = AXIS2_PLACEMENT_3D ( 'NONE', #68, #163, #229 ) ;
#146 = FACE_OUTER_BOUND ( 'NONE', #3, .T. ) ;
#147 = DIRECTION ( 'NONE',  ( 1.000000000000000000, 0.0000000000000000000, 0.0000000000000000000 ) ) ;
#148 = LINE ( 'NONE', #164, #200 ) ;
#149 = PLANE ( 'NONE',  #80 ) ;
#150 = APPROVAL ( #201, 'UNSPECIFIED' ) ;
#151 = DIRECTION ( 'NONE',  ( 0.0000000000000000000, -0.0000000000000000000, 1.000000000000000000 ) ) ;
#152 = DIRECTION ( 'NONE',  ( -1.000000000000000000, -1.156482317317871478E-16, 0.0000000000000000000 ) ) ;
#153 = ORIENTED_EDGE ( 'NONE', *, *, #143, .F. ) ;
#154 = AXIS2_PLACEMENT_3D ( 'NONE', #37, #21, #152 ) ;
#155 = APPROVAL_ROLE ( '' ) ;
#156 = PERSON_AND_ORGANIZATION ( #142, #180 ) ;
#157 = FACE_OUTER_BOUND ( 'NONE', #109, .T. ) ;
#158 = ORIENTED_EDGE ( 'NONE', *, *, #4, .T. ) ;
#159 = CC_DESIGN_PERSON_AND_ORGANIZATION_ASSIGNMENT ( #126, #138, ( #87 ) ) ;
#160 = ORIENTED_EDGE ( 'NONE', *, *, #83, .F. ) ;
#161 = PRODUCT_DEFINITION_FORMATION_WITH_SPECIFIED_SOURCE ( 'ANY', '', #103, .NOT_KNOWN. ) ;
#162 = FACE_OUTER_BOUND ( 'NONE', #222, .T. ) ;
#163 = DIRECTION ( 'NONE',  ( 1.156482317317871478E-16, -1.000000000000000000, 0.0000000000000000000 ) ) ;
#164 = CARTESIAN_POINT ( 'NONE',  ( 15.00000000000000355, -15.00000000000000000, -3.000000000000000000 ) ) ;
#165 = FACE_OUTER_BOUND ( 'NONE', #170, .T. ) ;
#166 = ORIENTED_EDGE ( 'NONE', *, *, #143, .T. ) ;
#167 = CARTESIAN_POINT ( 'NONE',  ( -15.00000000000000000, -15.00000000000000355, -3.000000000000000000 ) ) ;
#168 = DIRECTION ( 'NONE',  ( 0.0000000000000000000, 1.000000000000000000, 0.0000000000000000000 ) ) ;
#169 = LINE ( 'NONE', #57, #62 ) ;
#170 = EDGE_LOOP ( 'NONE', ( #236, #47, #2, #66 ) ) ;
#171 = CARTESIAN_POINT ( 'NONE',  ( -15.00000000000000000, 14.99999999999999822, 3.000000000000000000 ) ) ;
#172 = COORDINATED_UNIVERSAL_TIME_OFFSET ( 5, 0, .BEHIND. ) ;
#173 = CARTESIAN_POINT ( 'NONE',  ( 15.00000000000000355, -15.00000000000000000, 3.000000000000000000 ) ) ;
#174 = APPLICATION_CONTEXT ( 'configuration controlled 3d designs of mechanical parts and assemblies' ) ;
#175 = VERTEX_POINT ( 'NONE', #75 ) ;
#176 = SECURITY_CLASSIFICATION_LEVEL ( 'unclassified' ) ;
#177 = PERSON_AND_ORGANIZATION_ROLE ( 'design_owner' ) ;
#178 = AXIS2_PLACEMENT_3D ( 'NONE', #198, #102, #119 ) ;
#179 = PERSON_AND_ORGANIZATION ( #142, #180 ) ;
#180 = ORGANIZATION ( 'UNSPECIFIED', 'UNSPECIFIED', '' ) ;
#181 = APPROVAL ( #58, 'UNSPECIFIED' ) ;
#182 = VERTEX_POINT ( 'NONE', #133 ) ;
#183 = ORIENTED_EDGE ( 'NONE', *, *, #32, .T. ) ;
#184 = CC_DESIGN_DATE_AND_TIME_ASSIGNMENT ( #110, #81, ( #87 ) ) ;
#185 = PERSON_AND_ORGANIZATION ( #142, #180 ) ;
#186 = PLANE ( 'NONE',  #145 ) ;
#187 = LINE ( 'NONE', #116, #86 ) ;
#188 = DIRECTION ( 'NONE',  ( -0.0000000000000000000, -1.000000000000000000, -0.0000000000000000000 ) ) ;
#189 = DESIGN_CONTEXT ( 'detailed design', #174, 'design' ) ;
#190 = ADVANCED_FACE ( 'NONE', ( #56 ), #211, .F. ) ;
#191 = CARTESIAN_POINT ( 'NONE',  ( -15.00000000000000000, -15.00000000000000355, 3.000000000000000000 ) ) ;
#192 = CARTESIAN_POINT ( 'NONE',  ( 15.00000000000000355, -15.00000000000000000, 3.000000000000000000 ) ) ;
#193 = VECTOR ( 'NONE', #23, 1000.000000000000000 ) ;
#194 = DIRECTION ( 'NONE',  ( -0.0000000000000000000, -0.0000000000000000000, -1.000000000000000000 ) ) ;
#195 = ORIENTED_EDGE ( 'NONE', *, *, #17, .T. ) ;
#196 = ORIENTED_EDGE ( 'NONE', *, *, #221, .F. ) ;
#197 = PERSON_AND_ORGANIZATION_ROLE ( 'classification_officer' ) ;
#198 = CARTESIAN_POINT ( 'NONE',  ( 0.0000000000000000000, 0.0000000000000000000, 0.0000000000000000000 ) ) ;
#199 = APPROVAL ( #24, 'UNSPECIFIED' ) ;
#200 = VECTOR ( 'NONE', #52, 1000.000000000000000 ) ;
#201 = APPROVAL_STATUS ( 'not_yet_approved' ) ;
#202 = EDGE_CURVE ( 'NONE', #78, #182, #205, .T. ) ;
#203 = CC_DESIGN_DATE_AND_TIME_ASSIGNMENT ( #94, #25, ( #29 ) ) ;
#204 = DATE_AND_TIME ( #237, #88 ) ;
#205 = LINE ( 'NONE', #173, #101 ) ;
#206 = LINE ( 'NONE', #113, #141 ) ;
#207 = COORDINATED_UNIVERSAL_TIME_OFFSET ( 5, 0, .BEHIND. ) ;
#208 = LINE ( 'NONE', #74, #49 ) ;
#209 = CC_DESIGN_APPROVAL ( #181, ( #161 ) ) ;
#210 = ADVANCED_FACE ( 'NONE', ( #69 ), #131, .F. ) ;
#211 = PLANE ( 'NONE',  #64 ) ;
#212 = CALENDAR_DATE ( 2020, 19, 10 ) ;
#213 = EDGE_CURVE ( 'NONE', #140, #175, #1, .T. ) ;
#214 = CARTESIAN_POINT ( 'NONE',  ( -15.00000000000000000, -15.00000000000000355, -3.000000000000000000 ) ) ;
#215 = LINE ( 'NONE', #71, #127 ) ;
#216 = DIRECTION ( 'NONE',  ( -0.0000000000000000000, -0.0000000000000000000, -1.000000000000000000 ) ) ;
#217 = APPLICATION_CONTEXT ( 'configuration controlled 3d designs of mechanical parts and assemblies' ) ;
#218 = LINE ( 'NONE', #97, #193 ) ;
#219 = APPROVAL_ROLE ( '' ) ;
#220 = MECHANICAL_CONTEXT ( 'NONE', #217, 'mechanical' ) ;
#221 = EDGE_CURVE ( 'NONE', #27, #144, #187, .T. ) ;
#222 = EDGE_LOOP ( 'NONE', ( #41, #195, #63, #183 ) ) ;
#223 = CC_DESIGN_PERSON_AND_ORGANIZATION_ASSIGNMENT ( #156, #197, ( #29 ) ) ;
#224 = APPROVAL_PERSON_ORGANIZATION ( #28, #199, #219 ) ;
#225 = UNCERTAINTY_MEASURE_WITH_UNIT (LENGTH_MEASURE( 1.000000000000000082E-05 ), #100, 'distance_accuracy_value', 'NONE');
#226 = LINE ( 'NONE', #167, #16 ) ;
#227 = DIRECTION ( 'NONE',  ( 1.000000000000000000, 0.0000000000000000000, -0.0000000000000000000 ) ) ;
#228 = ORIENTED_EDGE ( 'NONE', *, *, #32, .F. ) ;
#229 = DIRECTION ( 'NONE',  ( 1.000000000000000000, 1.156482317317871478E-16, 0.0000000000000000000 ) ) ;
#230 = EDGE_CURVE ( 'NONE', #78, #140, #123, .T. ) ;
#231 = PLANE ( 'NONE',  #154 ) ;
#232 = DIRECTION ( 'NONE',  ( -0.0000000000000000000, -0.0000000000000000000, -1.000000000000000000 ) ) ;
#233 = DIRECTION ( 'NONE',  ( -1.000000000000000000, -1.156482317317871478E-16, 0.0000000000000000000 ) ) ;
#234 = ORIENTED_EDGE ( 'NONE', *, *, #230, .F. ) ;
#235 =( NAMED_UNIT ( * ) PLANE_ANGLE_UNIT ( ) SI_UNIT ( $, .RADIAN. ) );
#236 = ORIENTED_EDGE ( 'NONE', *, *, #213, .T. ) ;
#237 = CALENDAR_DATE ( 2020, 19, 10 ) ;
ENDSEC;
END-ISO-10303-21;
