ISO-10303-21;
HEADER;
FILE_DESCRIPTION (( 'STEP AP203' ),
    '1' );
FILE_NAME ('TTN206022-E0W.STEP',
    '2020-01-17T20:16:12',
    ( '' ),
    ( '' ),
    'SwSTEP 2.0',
    'SolidWorks 2018',
    '' );
FILE_SCHEMA (( 'CONFIG_CONTROL_DESIGN' ));
ENDSEC;

DATA;
#1 = ORIENTED_EDGE ( 'NONE', *, *, #284, .F. ) ;
#2 = CARTESIAN_POINT ( 'NONE',  ( 0.0000000000000000000, -2.394184492333074533E-16, 1.179999999999999494 ) ) ;
#3 = DIRECTION ( 'NONE',  ( 0.0000000000000000000, -1.000000000000000000, -1.224646799147353207E-16 ) ) ;
#4 = PERSON_AND_ORGANIZATION ( #296, #5 ) ;
#5 = ORGANIZATION ( 'UNSPECIFIED', 'UNSPECIFIED', '' ) ;
#6 = EDGE_CURVE ( 'NONE', #52, #281, #106, .T. ) ;
#7 = CIRCLE ( 'NONE', #69, 6.349999999999999645 ) ;
#8 = DIRECTION ( 'NONE',  ( -1.224646799147353207E-16, 1.000000000000000000, 0.0000000000000000000 ) ) ;
#9 = CIRCLE ( 'NONE', #138, 6.150000000000000355 ) ;
#10 = AXIS2_PLACEMENT_3D ( 'NONE', #278, #109, #89 ) ;
#11 = CARTESIAN_POINT ( 'NONE',  ( 0.0000000000000000000, 7.403250707672258630E-18, -0.8354521296493544469 ) ) ;
#12 = CIRCLE ( 'NONE', #277, 6.349999999999999645 ) ;
#13 =( GEOMETRIC_REPRESENTATION_CONTEXT ( 3 ) GLOBAL_UNCERTAINTY_ASSIGNED_CONTEXT ( ( #129 ) ) GLOBAL_UNIT_ASSIGNED_CONTEXT ( ( #164, #167, #246 ) ) REPRESENTATION_CONTEXT ( 'NONE', 'WORKASPACE' ) );
#14 = ORIENTED_EDGE ( 'NONE', *, *, #74, .T. ) ;
#15 = CARTESIAN_POINT ( 'NONE',  ( 0.0000000000000000000, 0.0000000000000000000, 0.0000000000000000000 ) ) ;
#16 = CARTESIAN_POINT ( 'NONE',  ( 0.0000000000000000000, -2.394184492333074533E-16, 1.179999999999999494 ) ) ;
#17 = APPROVAL_STATUS ( 'not_yet_approved' ) ;
#18 = DIRECTION ( 'NONE',  ( -0.0000000000000000000, 1.224646799147351482E-16, -1.000000000000000000 ) ) ;
#19 = FACE_OUTER_BOUND ( 'NONE', #235, .T. ) ;
#20 = EDGE_LOOP ( 'NONE', ( #62, #201, #108, #24 ) ) ;
#21 = ADVANCED_FACE ( 'NONE', ( #50 ), #131, .T. ) ;
#22 = EDGE_CURVE ( 'NONE', #122, #202, #301, .T. ) ;
#23 = CC_DESIGN_PERSON_AND_ORGANIZATION_ASSIGNMENT ( #214, #121, ( #85 ) ) ;
#24 = ORIENTED_EDGE ( 'NONE', *, *, #74, .F. ) ;
#25 = AXIS2_PLACEMENT_3D ( 'NONE', #190, #55, #143 ) ;
#26 = DIRECTION ( 'NONE',  ( 0.0000000000000000000, -1.000000000000000000, -1.365923996832131609E-16 ) ) ;
#27 = FACE_OUTER_BOUND ( 'NONE', #224, .T. ) ;
#28 = SECURITY_CLASSIFICATION ( '', '', #192 ) ;
#29 = ORIENTED_EDGE ( 'NONE', *, *, #262, .T. ) ;
#30 = CC_DESIGN_APPROVAL ( #134, ( #28 ) ) ;
#31 = APPROVAL_STATUS ( 'not_yet_approved' ) ;
#32 = DIRECTION ( 'NONE',  ( 0.0000000000000000000, 1.000000000000000000, 1.236659045429910544E-16 ) ) ;
#33 = COORDINATED_UNIVERSAL_TIME_OFFSET ( 5, 0, .BEHIND. ) ;
#34 = DIRECTION ( 'NONE',  ( 0.0000000000000000000, -1.000000000000000000, -1.365923996832131609E-16 ) ) ;
#35 = ORIENTED_EDGE ( 'NONE', *, *, #22, .F. ) ;
#36 = DIRECTION ( 'NONE',  ( -0.0000000000000000000, 1.224646799147351482E-16, -1.000000000000000000 ) ) ;
#37 = CC_DESIGN_DATE_AND_TIME_ASSIGNMENT ( #228, #82, ( #28 ) ) ;
#38 = CARTESIAN_POINT ( 'NONE',  ( 0.0000000000000000000, 7.403250707672258630E-18, -0.8354521296493544469 ) ) ;
#39 = ORIENTED_EDGE ( 'NONE', *, *, #91, .F. ) ;
#40 = EDGE_CURVE ( 'NONE', #84, #281, #12, .T. ) ;
#41 = CARTESIAN_POINT ( 'NONE',  ( 0.0000000000000000000, 7.403250707672258630E-18, -0.8354521296493544469 ) ) ;
#42 = AXIS2_PLACEMENT_3D ( 'NONE', #99, #266, #261 ) ;
#43 = ORIENTED_EDGE ( 'NONE', *, *, #78, .T. ) ;
#44 = AXIS2_PLACEMENT_3D ( 'NONE', #15, #79, #145 ) ;
#45 = LOCAL_TIME ( 15, 16, 12.00000000000000000, #80 ) ;
#46 = ORIENTED_EDGE ( 'NONE', *, *, #6, .F. ) ;
#47 = CC_DESIGN_SECURITY_CLASSIFICATION ( #28, ( #85 ) ) ;
#48 = DIRECTION ( 'NONE',  ( -0.0000000000000000000, 1.224646799147351482E-16, -1.000000000000000000 ) ) ;
#49 = CALENDAR_DATE ( 2020, 17, 1 ) ;
#50 = FACE_OUTER_BOUND ( 'NONE', #148, .T. ) ;
#51 = LINE ( 'NONE', #223, #188 ) ;
#52 = VERTEX_POINT ( 'NONE', #70 ) ;
#53 = ADVANCED_FACE ( 'NONE', ( #128 ), #176, .T. ) ;
#54 = LINE ( 'NONE', #239, #132 ) ;
#55 = DIRECTION ( 'NONE',  ( -1.000000000000000000, 0.0000000000000000000, 0.0000000000000000000 ) ) ;
#56 = VECTOR ( 'NONE', #204, 1000.000000000000000 ) ;
#57 = CARTESIAN_POINT ( 'NONE',  ( 0.0000000000000000000, -2.394184492333074533E-16, 1.179999999999999494 ) ) ;
#58 = CARTESIAN_POINT ( 'NONE',  ( 0.0000000000000000000, 6.349999999999999645, 0.9800000000000015365 ) ) ;
#59 = APPROVAL_ROLE ( '' ) ;
#60 = CC_DESIGN_PERSON_AND_ORGANIZATION_ASSIGNMENT ( #229, #96, ( #174 ) ) ;
#61 = FACE_OUTER_BOUND ( 'NONE', #133, .T. ) ;
#62 = ORIENTED_EDGE ( 'NONE', *, *, #181, .F. ) ;
#63 = DIRECTION ( 'NONE',  ( 0.0000000000000000000, -1.224646799147353207E-16, 1.000000000000000000 ) ) ;
#64 = CARTESIAN_POINT ( 'NONE',  ( 7.603315963338594443E-16, 6.208578643762691307, -0.8354521296493537807 ) ) ;
#65 = CARTESIAN_POINT ( 'NONE',  ( 0.0000000000000000000, 6.150000000000000355, 1.180000000000000160 ) ) ;
#66 = CIRCLE ( 'NONE', #95, 6.208578643762691307 ) ;
#67 = ORIENTED_EDGE ( 'NONE', *, *, #115, .F. ) ;
#68 = CONICAL_SURFACE ( 'NONE', #42, 6.349999999999999645, 0.7853981633974504994 ) ;
#69 = AXIS2_PLACEMENT_3D ( 'NONE', #196, #219, #245 ) ;
#70 = CARTESIAN_POINT ( 'NONE',  ( 0.0000000000000000000, 6.349999999999999645, 0.9800000000000015365 ) ) ;
#71 = FACE_OUTER_BOUND ( 'NONE', #73, .T. ) ;
#72 = FACE_OUTER_BOUND ( 'NONE', #140, .T. ) ;
#73 = EDGE_LOOP ( 'NONE', ( #282, #206, #39, #46 ) ) ;
#74 = EDGE_CURVE ( 'NONE', #256, #52, #186, .T. ) ;
#75 = CONICAL_SURFACE ( 'NONE', #178, 6.349999999999999645, 0.7853981633974504994 ) ;
#76 = ORIENTED_EDGE ( 'NONE', *, *, #165, .F. ) ;
#77 = ADVANCED_FACE ( 'NONE', ( #71 ), #241, .T. ) ;
#78 = EDGE_CURVE ( 'NONE', #180, #202, #118, .T. ) ;
#79 = DIRECTION ( 'NONE',  ( 0.0000000000000000000, 0.0000000000000000000, 1.000000000000000000 ) ) ;
#80 = COORDINATED_UNIVERSAL_TIME_OFFSET ( 5, 0, .BEHIND. ) ;
#81 = VECTOR ( 'NONE', #199, 1000.000000000000000 ) ;
#82 = DATE_TIME_ROLE ( 'classification_date' ) ;
#83 = DIRECTION ( 'NONE',  ( 0.0000000000000000000, -1.224646799147353207E-16, 1.000000000000000000 ) ) ;
#84 = VERTEX_POINT ( 'NONE', #211 ) ;
#85 = PRODUCT_DEFINITION_FORMATION_WITH_SPECIFIED_SOURCE ( 'ANY', '', #174, .NOT_KNOWN. ) ;
#86 = AXIS2_PLACEMENT_3D ( 'NONE', #263, #173, #102 ) ;
#87 = ORIENTED_EDGE ( 'NONE', *, *, #105, .T. ) ;
#88 = ORIENTED_EDGE ( 'NONE', *, *, #262, .F. ) ;
#89 = DIRECTION ( 'NONE',  ( 0.0000000000000000000, 1.000000000000000000, 1.365923996832131609E-16 ) ) ;
#90 = CARTESIAN_POINT ( 'NONE',  ( 0.0000000000000000000, -1.011313326735884292E-14, 54.92999999999999972 ) ) ;
#91 = EDGE_CURVE ( 'NONE', #281, #84, #7, .T. ) ;
#92 = ORIENTED_EDGE ( 'NONE', *, *, #91, .T. ) ;
#93 = LOCAL_TIME ( 15, 16, 12.00000000000000000, #126 ) ;
#94 = ORIENTED_EDGE ( 'NONE', *, *, #147, .T. ) ;
#95 = AXIS2_PLACEMENT_3D ( 'NONE', #11, #117, #258 ) ;
#96 = PERSON_AND_ORGANIZATION_ROLE ( 'design_owner' ) ;
#97 = DIRECTION ( 'NONE',  ( 0.0000000000000000000, 1.000000000000000000, 1.222407839678904051E-16 ) ) ;
#98 = PRODUCT_DEFINITION ( 'UNKNOWN', '', #85, #244 ) ;
#99 = CARTESIAN_POINT ( 'NONE',  ( 0.0000000000000000000, -2.149255132503605913E-16, 0.9800000000000006484 ) ) ;
#100 = CARTESIAN_POINT ( 'NONE',  ( 0.0000000000000000000, -2.149255132503605913E-16, 0.9800000000000006484 ) ) ;
#101 = DIRECTION ( 'NONE',  ( 0.0000000000000000000, 1.000000000000000000, 1.236659045429910544E-16 ) ) ;
#102 = DIRECTION ( 'NONE',  ( 0.0000000000000000000, -1.000000000000000000, -1.222407839678904051E-16 ) ) ;
#103 = PERSON_AND_ORGANIZATION ( #296, #5 ) ;
#104 = PERSON_AND_ORGANIZATION ( #296, #5 ) ;
#105 = EDGE_CURVE ( 'NONE', #122, #180, #66, .T. ) ;
#106 = LINE ( 'NONE', #209, #56 ) ;
#107 = VECTOR ( 'NONE', #291, 1000.000000000000114 ) ;
#108 = ORIENTED_EDGE ( 'NONE', *, *, #175, .T. ) ;
#109 = DIRECTION ( 'NONE',  ( -0.0000000000000000000, 1.224646799147353207E-16, -1.000000000000000000 ) ) ;
#110 = LOCAL_TIME ( 15, 16, 12.00000000000000000, #193 ) ;
#111 = SPHERICAL_SURFACE ( 'NONE', #227, 56.10999999999999943 ) ;
#112 = APPROVAL ( #260, 'UNSPECIFIED' ) ;
#113 = ORIENTED_EDGE ( 'NONE', *, *, #105, .F. ) ;
#114 = ADVANCED_FACE ( 'NONE', ( #61 ), #111, .T. ) ;
#115 = EDGE_CURVE ( 'NONE', #256, #84, #54, .T. ) ;
#116 = APPROVAL ( #17, 'UNSPECIFIED' ) ;
#117 = DIRECTION ( 'NONE',  ( -0.0000000000000000000, 1.224646799147353207E-16, -1.000000000000000000 ) ) ;
#118 = CIRCLE ( 'NONE', #25, 56.10999999999999943 ) ;
#119 = PERSON_AND_ORGANIZATION_ROLE ( 'design_supplier' ) ;
#120 = PERSON_AND_ORGANIZATION ( #296, #5 ) ;
#121 = PERSON_AND_ORGANIZATION_ROLE ( 'creator' ) ;
#122 = VERTEX_POINT ( 'NONE', #222 ) ;
#123 = PERSON_AND_ORGANIZATION_ROLE ( 'creator' ) ;
#124 = CARTESIAN_POINT ( 'NONE',  ( 0.0000000000000000000, 6.349999999999999645, -0.6940307734120444438 ) ) ;
#125 = CARTESIAN_POINT ( 'NONE',  ( 0.0000000000000000000, -6.208578643762691307, -0.8354521296493552240 ) ) ;
#126 = COORDINATED_UNIVERSAL_TIME_OFFSET ( 5, 0, .BEHIND. ) ;
#127 = VECTOR ( 'NONE', #248, 1000.000000000000000 ) ;
#128 = FACE_OUTER_BOUND ( 'NONE', #146, .T. ) ;
#129 = UNCERTAINTY_MEASURE_WITH_UNIT (LENGTH_MEASURE( 1.000000000000000082E-05 ), #164, 'distance_accuracy_value', 'NONE');
#130 = ORIENTED_EDGE ( 'NONE', *, *, #78, .F. ) ;
#131 = PLANE ( 'NONE',  #182 ) ;
#132 = VECTOR ( 'NONE', #285, 1000.000000000000000 ) ;
#133 = EDGE_LOOP ( 'NONE', ( #29, #268, #130 ) ) ;
#134 = APPROVAL ( #31, 'UNSPECIFIED' ) ;
#135 = CC_DESIGN_PERSON_AND_ORGANIZATION_ASSIGNMENT ( #120, #123, ( #98 ) ) ;
#136 = APPROVAL_DATE_TIME ( #157, #134 ) ;
#137 = ORIENTED_EDGE ( 'NONE', *, *, #181, .T. ) ;
#138 = AXIS2_PLACEMENT_3D ( 'NONE', #16, #63, #226 ) ;
#139 = APPROVAL_DATE_TIME ( #300, #116 ) ;
#140 = EDGE_LOOP ( 'NONE', ( #88, #94, #92, #76 ) ) ;
#141 = PERSON_AND_ORGANIZATION_ROLE ( 'classification_officer' ) ;
#142 = CC_DESIGN_APPROVAL ( #112, ( #98 ) ) ;
#143 = DIRECTION ( 'NONE',  ( 0.0000000000000000000, 0.0000000000000000000, 1.000000000000000000 ) ) ;
#144 = CALENDAR_DATE ( 2020, 17, 1 ) ;
#145 = DIRECTION ( 'NONE',  ( 1.000000000000000000, 0.0000000000000000000, 0.0000000000000000000 ) ) ;
#146 = EDGE_LOOP ( 'NONE', ( #67, #14, #294, #212 ) ) ;
#147 = EDGE_CURVE ( 'NONE', #180, #281, #280, .T. ) ;
#148 = EDGE_LOOP ( 'NONE', ( #238, #273 ) ) ;
#149 = CC_DESIGN_APPROVAL ( #116, ( #85 ) ) ;
#150 = CC_DESIGN_PERSON_AND_ORGANIZATION_ASSIGNMENT ( #286, #119, ( #85 ) ) ;
#151 = LOCAL_TIME ( 15, 16, 12.00000000000000000, #265 ) ;
#152 = ORIENTED_EDGE ( 'NONE', *, *, #40, .T. ) ;
#153 = PRODUCT_RELATED_PRODUCT_CATEGORY ( 'detail', '', ( #174 ) ) ;
#154 = DIRECTION ( 'NONE',  ( 1.000000000000000000, 1.224646799147353207E-16, 1.499759782661857608E-32 ) ) ;
#155 = DIRECTION ( 'NONE',  ( 0.0000000000000000000, 1.000000000000000000, 1.365923996832131609E-16 ) ) ;
#156 = EDGE_CURVE ( 'NONE', #250, #195, #9, .T. ) ;
#157 = DATE_AND_TIME ( #49, #93 ) ;
#158 = ORIENTED_EDGE ( 'NONE', *, *, #165, .T. ) ;
#159 = AXIS2_PLACEMENT_3D ( 'NONE', #41, #83, #172 ) ;
#160 = CONICAL_SURFACE ( 'NONE', #159, 6.208578643762691307, 0.7853981633974467247 ) ;
#161 = CARTESIAN_POINT ( 'NONE',  ( 0.0000000000000000000, -1.011313326735884292E-14, 54.92999999999999972 ) ) ;
#162 = ADVANCED_FACE ( 'NONE', ( #72 ), #292, .T. ) ;
#163 = CALENDAR_DATE ( 2020, 17, 1 ) ;
#164 =( LENGTH_UNIT ( ) NAMED_UNIT ( * ) SI_UNIT ( .MILLI., .METRE. ) );
#165 = EDGE_CURVE ( 'NONE', #122, #84, #230, .T. ) ;
#166 = DIRECTION ( 'NONE',  ( 1.000000000000000000, 0.0000000000000000000, -0.0000000000000000000 ) ) ;
#167 =( NAMED_UNIT ( * ) PLANE_ANGLE_UNIT ( ) SI_UNIT ( $, .RADIAN. ) );
#168 = APPROVAL_ROLE ( '' ) ;
#169 = CARTESIAN_POINT ( 'NONE',  ( 7.654042494670957606E-16, -6.150000000000000355, 1.179999999999998828 ) ) ;
#170 = EDGE_LOOP ( 'NONE', ( #220, #113, #158, #152 ) ) ;
#171 = APPROVAL_ROLE ( '' ) ;
#172 = DIRECTION ( 'NONE',  ( 0.0000000000000000000, -1.000000000000000000, -1.222407839678904051E-16 ) ) ;
#173 = DIRECTION ( 'NONE',  ( 0.0000000000000000000, -1.224646799147353207E-16, 1.000000000000000000 ) ) ;
#174 = PRODUCT ( 'TTN206022-E0W', 'TTN206022-E0W', '', ( #297 ) ) ;
#175 = EDGE_CURVE ( 'NONE', #250, #52, #217, .T. ) ;
#176 = CYLINDRICAL_SURFACE ( 'NONE', #10, 6.349999999999999645 ) ;
#177 = ADVANCED_FACE ( 'NONE', ( #237 ), #160, .T. ) ;
#178 = AXIS2_PLACEMENT_3D ( 'NONE', #100, #18, #269 ) ;
#179 = SPHERICAL_SURFACE ( 'NONE', #185, 56.10999999999999943 ) ;
#180 = VERTEX_POINT ( 'NONE', #197 ) ;
#181 = EDGE_CURVE ( 'NONE', #195, #256, #51, .T. ) ;
#182 = AXIS2_PLACEMENT_3D ( 'NONE', #2, #279, #3 ) ;
#183 = CARTESIAN_POINT ( 'NONE',  ( 0.0000000000000000000, -9.915870417037573498E-18, -0.6940307734120452210 ) ) ;
#184 = APPROVAL_PERSON_ORGANIZATION ( #216, #116, #168 ) ;
#185 = AXIS2_PLACEMENT_3D ( 'NONE', #295, #264, #101 ) ;
#186 = CIRCLE ( 'NONE', #299, 6.349999999999999645 ) ;
#187 = DIRECTION ( 'NONE',  ( 0.0000000000000000000, 1.000000000000000000, 1.195183497228115281E-16 ) ) ;
#188 = VECTOR ( 'NONE', #200, 1000.000000000000114 ) ;
#189 = CIRCLE ( 'NONE', #289, 6.150000000000000355 ) ;
#190 = CARTESIAN_POINT ( 'NONE',  ( 0.0000000000000000000, -1.011313326735884292E-14, 54.92999999999999972 ) ) ;
#191 = CLOSED_SHELL ( 'NONE', ( #257, #162, #77, #114, #271, #21, #53, #177, #283 ) ) ;
#192 = SECURITY_CLASSIFICATION_LEVEL ( 'unclassified' ) ;
#193 = COORDINATED_UNIVERSAL_TIME_OFFSET ( 5, 0, .BEHIND. ) ;
#194 = FACE_OUTER_BOUND ( 'NONE', #20, .T. ) ;
#195 = VERTEX_POINT ( 'NONE', #169 ) ;
#196 = CARTESIAN_POINT ( 'NONE',  ( 0.0000000000000000000, -9.915870417037573498E-18, -0.6940307734120452210 ) ) ;
#197 = CARTESIAN_POINT ( 'NONE',  ( 0.0000000000000000000, 6.208578643762685090, -0.8354521296493574445 ) ) ;
#198 = APPLICATION_CONTEXT ( 'configuration controlled 3d designs of mechanical parts and assemblies' ) ;
#199 = DIRECTION ( 'NONE',  ( 0.0000000000000000000, -0.7071067811865465735, 0.7071067811865485719 ) ) ;
#200 = DIRECTION ( 'NONE',  ( 8.659560562354953812E-17, -0.7071067811865489050, -0.7071067811865461294 ) ) ;
#201 = ORIENTED_EDGE ( 'NONE', *, *, #156, .F. ) ;
#202 = VERTEX_POINT ( 'NONE', #298 ) ;
#203 = PRODUCT_DEFINITION_SHAPE ( 'NONE', 'NONE',  #98 ) ;
#204 = DIRECTION ( 'NONE',  ( -0.0000000000000000000, 1.224646799147353207E-16, -1.000000000000000000 ) ) ;
#205 = APPROVAL_PERSON_ORGANIZATION ( #103, #134, #171 ) ;
#206 = ORIENTED_EDGE ( 'NONE', *, *, #115, .T. ) ;
#207 = CARTESIAN_POINT ( 'NONE',  ( 0.0000000000000000000, 4.959819536546776902E-17, -1.179999999999999938 ) ) ;
#208 = AXIS2_PLACEMENT_3D ( 'NONE', #207, #232, #155 ) ;
#209 = CARTESIAN_POINT ( 'NONE',  ( 0.0000000000000000000, 6.349999999999999645, -1.179999999999999050 ) ) ;
#210 = DATE_AND_TIME ( #255, #272 ) ;
#211 = CARTESIAN_POINT ( 'NONE',  ( 7.776507174585692163E-16, -6.349999999999999645, -0.6940307734120459981 ) ) ;
#212 = ORIENTED_EDGE ( 'NONE', *, *, #40, .F. ) ;
#213 = ADVANCED_BREP_SHAPE_REPRESENTATION ( 'TTN206022-E0W', ( #275, #44 ), #13 ) ;
#214 = PERSON_AND_ORGANIZATION ( #296, #5 ) ;
#215 = ORIENTED_EDGE ( 'NONE', *, *, #270, .F. ) ;
#216 = PERSON_AND_ORGANIZATION ( #296, #5 ) ;
#217 = LINE ( 'NONE', #58, #107 ) ;
#218 = APPLICATION_CONTEXT ( 'configuration controlled 3d designs of mechanical parts and assemblies' ) ;
#219 = DIRECTION ( 'NONE',  ( -0.0000000000000000000, 1.224646799147353207E-16, -1.000000000000000000 ) ) ;
#220 = ORIENTED_EDGE ( 'NONE', *, *, #147, .F. ) ;
#221 = DATE_TIME_ROLE ( 'creation_date' ) ;
#222 = CARTESIAN_POINT ( 'NONE',  ( 7.603315963338586554E-16, -6.208578643762688642, -0.8354521296493582216 ) ) ;
#223 = CARTESIAN_POINT ( 'NONE',  ( 7.776507174585692163E-16, -6.349999999999999645, 0.9799999999999997602 ) ) ;
#224 = EDGE_LOOP ( 'NONE', ( #35, #87, #43 ) ) ;
#225 = DIRECTION ( 'NONE',  ( -0.0000000000000000000, 1.224646799147353207E-16, -1.000000000000000000 ) ) ;
#226 = DIRECTION ( 'NONE',  ( 0.0000000000000000000, -1.000000000000000000, -1.057758217059028608E-16 ) ) ;
#227 = AXIS2_PLACEMENT_3D ( 'NONE', #161, #166, #32 ) ;
#228 = DATE_AND_TIME ( #163, #151 ) ;
#229 = PERSON_AND_ORGANIZATION ( #296, #5 ) ;
#230 = LINE ( 'NONE', #125, #81 ) ;
#231 = CARTESIAN_POINT ( 'NONE',  ( 0.0000000000000000000, -2.149255132503605913E-16, 0.9800000000000006484 ) ) ;
#232 = DIRECTION ( 'NONE',  ( -0.0000000000000000000, 1.224646799147353207E-16, -1.000000000000000000 ) ) ;
#233 = DATE_AND_TIME ( #144, #45 ) ;
#234 = CIRCLE ( 'NONE', #254, 6.208578643762691307 ) ;
#235 = EDGE_LOOP ( 'NONE', ( #215, #137, #1, #276 ) ) ;
#236 = CC_DESIGN_PERSON_AND_ORGANIZATION_ASSIGNMENT ( #4, #141, ( #28 ) ) ;
#237 = FACE_OUTER_BOUND ( 'NONE', #170, .T. ) ;
#238 = ORIENTED_EDGE ( 'NONE', *, *, #156, .T. ) ;
#239 = CARTESIAN_POINT ( 'NONE',  ( 7.776507174585692163E-16, -6.349999999999999645, -1.180000000000000604 ) ) ;
#240 = APPROVAL_PERSON_ORGANIZATION ( #104, #112, #59 ) ;
#241 = CYLINDRICAL_SURFACE ( 'NONE', #208, 6.349999999999999645 ) ;
#242 = APPLICATION_PROTOCOL_DEFINITION ( 'international standard', 'config_control_design', 1994, #218 ) ;
#243 = APPLICATION_PROTOCOL_DEFINITION ( 'international standard', 'config_control_design', 1994, #198 ) ;
#244 = DESIGN_CONTEXT ( 'detailed design', #198, 'design' ) ;
#245 = DIRECTION ( 'NONE',  ( 0.0000000000000000000, 1.000000000000000000, 1.195183497228115281E-16 ) ) ;
#246 =( NAMED_UNIT ( * ) SI_UNIT ( $, .STERADIAN. ) SOLID_ANGLE_UNIT ( ) );
#247 = AXIS2_PLACEMENT_3D ( 'NONE', #90, #154, #8 ) ;
#248 = DIRECTION ( 'NONE',  ( 8.659560562354920532E-17, 0.7071067811865463515, 0.7071067811865487940 ) ) ;
#249 = APPROVAL_DATE_TIME ( #210, #112 ) ;
#250 = VERTEX_POINT ( 'NONE', #65 ) ;
#251 = CIRCLE ( 'NONE', #259, 6.349999999999999645 ) ;
#252 = DIRECTION ( 'NONE',  ( -0.0000000000000000000, 1.224646799147353207E-16, -1.000000000000000000 ) ) ;
#253 = CC_DESIGN_DATE_AND_TIME_ASSIGNMENT ( #233, #221, ( #98 ) ) ;
#254 = AXIS2_PLACEMENT_3D ( 'NONE', #38, #225, #97 ) ;
#255 = CALENDAR_DATE ( 2020, 17, 1 ) ;
#256 = VERTEX_POINT ( 'NONE', #267 ) ;
#257 = ADVANCED_FACE ( 'NONE', ( #19 ), #75, .T. ) ;
#258 = DIRECTION ( 'NONE',  ( 0.0000000000000000000, 1.000000000000000000, 1.222407839678904051E-16 ) ) ;
#259 = AXIS2_PLACEMENT_3D ( 'NONE', #290, #36, #34 ) ;
#260 = APPROVAL_STATUS ( 'not_yet_approved' ) ;
#261 = DIRECTION ( 'NONE',  ( 0.0000000000000000000, 1.000000000000000000, 1.365923996832131609E-16 ) ) ;
#262 = EDGE_CURVE ( 'NONE', #180, #122, #234, .T. ) ;
#263 = CARTESIAN_POINT ( 'NONE',  ( 0.0000000000000000000, 7.403250707672258630E-18, -0.8354521296493544469 ) ) ;
#264 = DIRECTION ( 'NONE',  ( 1.000000000000000000, 0.0000000000000000000, -0.0000000000000000000 ) ) ;
#265 = COORDINATED_UNIVERSAL_TIME_OFFSET ( 5, 0, .BEHIND. ) ;
#266 = DIRECTION ( 'NONE',  ( -0.0000000000000000000, 1.224646799147351482E-16, -1.000000000000000000 ) ) ;
#267 = CARTESIAN_POINT ( 'NONE',  ( 7.776507174585692163E-16, -6.349999999999999645, 0.9799999999999997602 ) ) ;
#268 = ORIENTED_EDGE ( 'NONE', *, *, #22, .T. ) ;
#269 = DIRECTION ( 'NONE',  ( 0.0000000000000000000, 1.000000000000000000, 1.365923996832131609E-16 ) ) ;
#270 = EDGE_CURVE ( 'NONE', #195, #250, #189, .T. ) ;
#271 = ADVANCED_FACE ( 'NONE', ( #27 ), #179, .T. ) ;
#272 = LOCAL_TIME ( 15, 16, 12.00000000000000000, #33 ) ;
#273 = ORIENTED_EDGE ( 'NONE', *, *, #270, .T. ) ;
#274 = CALENDAR_DATE ( 2020, 17, 1 ) ;
#275 = MANIFOLD_SOLID_BREP ( 'TTN206038-1-solid1', #191 ) ;
#276 = ORIENTED_EDGE ( 'NONE', *, *, #175, .F. ) ;
#277 = AXIS2_PLACEMENT_3D ( 'NONE', #183, #252, #187 ) ;
#278 = CARTESIAN_POINT ( 'NONE',  ( 0.0000000000000000000, 4.959819536546776902E-17, -1.179999999999999938 ) ) ;
#279 = DIRECTION ( 'NONE',  ( 0.0000000000000000000, -1.224646799147353207E-16, 1.000000000000000000 ) ) ;
#280 = LINE ( 'NONE', #64, #127 ) ;
#281 = VERTEX_POINT ( 'NONE', #124 ) ;
#282 = ORIENTED_EDGE ( 'NONE', *, *, #284, .T. ) ;
#283 = ADVANCED_FACE ( 'NONE', ( #194 ), #68, .T. ) ;
#284 = EDGE_CURVE ( 'NONE', #52, #256, #251, .T. ) ;
#285 = DIRECTION ( 'NONE',  ( -0.0000000000000000000, 1.224646799147353207E-16, -1.000000000000000000 ) ) ;
#286 = PERSON_AND_ORGANIZATION ( #296, #5 ) ;
#287 = SHAPE_DEFINITION_REPRESENTATION ( #203, #213 ) ;
#288 = DIRECTION ( 'NONE',  ( 0.0000000000000000000, -1.000000000000000000, -1.057758217059028608E-16 ) ) ;
#289 = AXIS2_PLACEMENT_3D ( 'NONE', #57, #293, #288 ) ;
#290 = CARTESIAN_POINT ( 'NONE',  ( 0.0000000000000000000, -2.149255132503605913E-16, 0.9800000000000006484 ) ) ;
#291 = DIRECTION ( 'NONE',  ( 0.0000000000000000000, 0.7071067811865491270, -0.7071067811865459074 ) ) ;
#292 = CONICAL_SURFACE ( 'NONE', #86, 6.208578643762691307, 0.7853981633974467247 ) ;
#293 = DIRECTION ( 'NONE',  ( 0.0000000000000000000, -1.224646799147353207E-16, 1.000000000000000000 ) ) ;
#294 = ORIENTED_EDGE ( 'NONE', *, *, #6, .T. ) ;
#295 = CARTESIAN_POINT ( 'NONE',  ( 0.0000000000000000000, -1.011313326735884292E-14, 54.92999999999999972 ) ) ;
#296 = PERSON ( 'UNSPECIFIED', 'UNSPECIFIED', 'UNSPECIFIED', ('UNSPECIFIED'), ('UNSPECIFIED'), ('UNSPECIFIED') ) ;
#297 = MECHANICAL_CONTEXT ( 'NONE', #218, 'mechanical' ) ;
#298 = CARTESIAN_POINT ( 'NONE',  ( 0.0000000000000000000, 1.941065176648546714E-16, -1.180000000000000604 ) ) ;
#299 = AXIS2_PLACEMENT_3D ( 'NONE', #231, #48, #26 ) ;
#300 = DATE_AND_TIME ( #274, #110 ) ;
#301 = CIRCLE ( 'NONE', #247, 56.10999999999999943 ) ;
ENDSEC;
END-ISO-10303-21;
