ISO-10303-21;
HEADER;
FILE_DESCRIPTION (( 'STEP AP203' ),
    '1' );
FILE_NAME ('Web Model 68738_63214.step',
    '2017-03-06T19:05:55',
    ( '' ),
    ( '' ),
    'SwSTEP 2.0',
    'SolidWorks 2016',
    '' );
FILE_SCHEMA (( 'CONFIG_CONTROL_DESIGN' ));
ENDSEC;

DATA;
#1 = APPROVAL_ROLE ( '' ) ;
#2 = APPROVAL_ROLE ( '' ) ;
#3 = DATE_AND_TIME ( #91, #121 ) ;
#4 = COORDINATED_UNIVERSAL_TIME_OFFSET ( 5, 0, .BEHIND. ) ;
#5 = DATE_AND_TIME ( #127, #120 ) ;
#6 = AXIS2_PLACEMENT_3D ( 'NONE', #42, #35, #139 ) ;
#7 = DIRECTION ( 'NONE',  ( 0.0000000000000000000, 0.0000000000000000000, -1.000000000000000000 ) ) ;
#8 = LOCAL_TIME ( 14, 5, 55.00000000000000000, #54 ) ;
#9 = DIRECTION ( 'NONE',  ( 0.0000000000000000000, 0.0000000000000000000, 1.000000000000000000 ) ) ;
#10 = CARTESIAN_POINT ( 'NONE',  ( 3.000000000000000000, 0.0000000000000000000, 0.0000000000000000000 ) ) ;
#11 = ADVANCED_FACE ( 'NONE', ( #169 ), #146, .F. ) ;
#12 = VERTEX_POINT ( 'NONE', #17 ) ;
#13 = DATE_TIME_ROLE ( 'creation_date' ) ;
#14 = ORIENTED_EDGE ( 'NONE', *, *, #71, .F. ) ;
#15 = COORDINATED_UNIVERSAL_TIME_OFFSET ( 5, 0, .BEHIND. ) ;
#16 = APPROVAL_DATE_TIME ( #148, #114 ) ;
#17 = CARTESIAN_POINT ( 'NONE',  ( 3.000000000000000000, 0.0000000000000000000, 15.00000000000000000 ) ) ;
#18 = ORIENTED_EDGE ( 'NONE', *, *, #70, .F. ) ;
#19 = PRODUCT_DEFINITION_SHAPE ( 'NONE', 'NONE',  #161 ) ;
#20 = DIRECTION ( 'NONE',  ( 1.000000000000000000, 0.0000000000000000000, 0.0000000000000000000 ) ) ;
#21 = AXIS2_PLACEMENT_3D ( 'NONE', #90, #165, #116 ) ;
#22 = LOCAL_TIME ( 14, 5, 55.00000000000000000, #15 ) ;
#23 = EDGE_LOOP ( 'NONE', ( #40, #157 ) ) ;
#24 = CYLINDRICAL_SURFACE ( 'NONE', #99, 15.00000000000000000 ) ;
#25 = APPROVAL_ROLE ( '' ) ;
#26 = DIRECTION ( 'NONE',  ( -1.000000000000000000, -0.0000000000000000000, -0.0000000000000000000 ) ) ;
#27 = EDGE_CURVE ( 'NONE', #126, #12, #67, .T. ) ;
#28 = ORGANIZATION ( 'UNSPECIFIED', 'UNSPECIFIED', '' ) ;
#29 = DIRECTION ( 'NONE',  ( 1.000000000000000000, 0.0000000000000000000, 0.0000000000000000000 ) ) ;
#30 = EDGE_CURVE ( 'NONE', #175, #156, #72, .T. ) ;
#31 = CIRCLE ( 'NONE', #134, 15.00000000000000000 ) ;
#32 = ADVANCED_FACE ( 'NONE', ( #38 ), #24, .T. ) ;
#33 = PERSON_AND_ORGANIZATION ( #84, #28 ) ;
#34 = AXIS2_PLACEMENT_3D ( 'NONE', #10, #62, #94 ) ;
#35 = DIRECTION ( 'NONE',  ( 0.0000000000000000000, 0.0000000000000000000, 1.000000000000000000 ) ) ;
#36 = PERSON_AND_ORGANIZATION_ROLE ( 'design_supplier' ) ;
#37 = AXIS2_PLACEMENT_3D ( 'NONE', #65, #153, #9 ) ;
#38 = FACE_OUTER_BOUND ( 'NONE', #163, .T. ) ;
#39 = CARTESIAN_POINT ( 'NONE',  ( 3.000000000000000000, 0.0000000000000000000, 0.0000000000000000000 ) ) ;
#40 = ORIENTED_EDGE ( 'NONE', *, *, #166, .T. ) ;
#41 = CIRCLE ( 'NONE', #128, 15.00000000000000000 ) ;
#42 = CARTESIAN_POINT ( 'NONE',  ( 0.0000000000000000000, 0.0000000000000000000, 0.0000000000000000000 ) ) ;
#43 = COORDINATED_UNIVERSAL_TIME_OFFSET ( 5, 0, .BEHIND. ) ;
#44 = DIRECTION ( 'NONE',  ( 0.0000000000000000000, 0.0000000000000000000, -1.000000000000000000 ) ) ;
#45 = APPROVAL_PERSON_ORGANIZATION ( #159, #114, #25 ) ;
#46 = CARTESIAN_POINT ( 'NONE',  ( 0.0000000000000000000, 0.0000000000000000000, 15.00000000000000000 ) ) ;
#47 = CARTESIAN_POINT ( 'NONE',  ( 0.0000000000000000000, 0.0000000000000000000, 0.0000000000000000000 ) ) ;
#48 = ADVANCED_BREP_SHAPE_REPRESENTATION ( 'Web Model 68738_63214', ( #82, #6 ), #52 ) ;
#49 = PRODUCT_RELATED_PRODUCT_CATEGORY ( 'detail', '', ( #98 ) ) ;
#50 = ORIENTED_EDGE ( 'NONE', *, *, #138, .T. ) ;
#51 = APPROVAL_DATE_TIME ( #83, #154 ) ;
#52 =( GEOMETRIC_REPRESENTATION_CONTEXT ( 3 ) GLOBAL_UNCERTAINTY_ASSIGNED_CONTEXT ( ( #119 ) ) GLOBAL_UNIT_ASSIGNED_CONTEXT ( ( #167, #55, #158 ) ) REPRESENTATION_CONTEXT ( 'NONE', 'WORKASPACE' ) );
#53 = LOCAL_TIME ( 14, 5, 55.00000000000000000, #43 ) ;
#54 = COORDINATED_UNIVERSAL_TIME_OFFSET ( 5, 0, .BEHIND. ) ;
#55 =( NAMED_UNIT ( * ) PLANE_ANGLE_UNIT ( ) SI_UNIT ( $, .RADIAN. ) );
#56 = MECHANICAL_CONTEXT ( 'NONE', #110, 'mechanical' ) ;
#57 = ORIENTED_EDGE ( 'NONE', *, *, #71, .T. ) ;
#58 = APPLICATION_PROTOCOL_DEFINITION ( 'international standard', 'config_control_design', 1994, #110 ) ;
#59 = ORIENTED_EDGE ( 'NONE', *, *, #166, .F. ) ;
#60 = ADVANCED_FACE ( 'NONE', ( #137 ), #103, .T. ) ;
#61 = EDGE_LOOP ( 'NONE', ( #14, #89 ) ) ;
#62 = DIRECTION ( 'NONE',  ( 1.000000000000000000, 0.0000000000000000000, 0.0000000000000000000 ) ) ;
#63 = APPROVAL_PERSON_ORGANIZATION ( #109, #154, #1 ) ;
#64 = DIRECTION ( 'NONE',  ( 0.0000000000000000000, 0.0000000000000000000, -1.000000000000000000 ) ) ;
#65 = CARTESIAN_POINT ( 'NONE',  ( 3.000000000000000000, 0.0000000000000000000, 0.0000000000000000000 ) ) ;
#66 = CC_DESIGN_SECURITY_CLASSIFICATION ( #112, ( #122 ) ) ;
#67 = CIRCLE ( 'NONE', #34, 15.00000000000000000 ) ;
#68 = ORIENTED_EDGE ( 'NONE', *, *, #27, .F. ) ;
#69 = DATE_AND_TIME ( #149, #8 ) ;
#70 = EDGE_CURVE ( 'NONE', #126, #175, #101, .T. ) ;
#71 = EDGE_CURVE ( 'NONE', #156, #175, #41, .T. ) ;
#72 = CIRCLE ( 'NONE', #168, 15.00000000000000000 ) ;
#73 = APPLICATION_CONTEXT ( 'configuration controlled 3d designs of mechanical parts and assemblies' ) ;
#74 = DATE_TIME_ROLE ( 'classification_date' ) ;
#75 = COORDINATED_UNIVERSAL_TIME_OFFSET ( 5, 0, .BEHIND. ) ;
#76 = CC_DESIGN_DATE_AND_TIME_ASSIGNMENT ( #5, #74, ( #112 ) ) ;
#77 = CARTESIAN_POINT ( 'NONE',  ( 3.000000000000000000, 0.0000000000000000000, 0.0000000000000000000 ) ) ;
#78 = LINE ( 'NONE', #79, #142 ) ;
#79 = CARTESIAN_POINT ( 'NONE',  ( 3.000000000000000000, 0.0000000000000000000, 15.00000000000000000 ) ) ;
#80 = VECTOR ( 'NONE', #136, 1000.000000000000000 ) ;
#81 = PERSON_AND_ORGANIZATION ( #84, #28 ) ;
#82 = MANIFOLD_SOLID_BREP ( 'Extrude1', #155 ) ;
#83 = DATE_AND_TIME ( #174, #53 ) ;
#84 = PERSON ( 'UNSPECIFIED', 'UNSPECIFIED', 'UNSPECIFIED', ('UNSPECIFIED'), ('UNSPECIFIED'), ('UNSPECIFIED') ) ;
#85 = APPROVAL_PERSON_ORGANIZATION ( #104, #124, #2 ) ;
#86 = DESIGN_CONTEXT ( 'detailed design', #73, 'design' ) ;
#87 = APPROVAL_STATUS ( 'not_yet_approved' ) ;
#88 = APPROVAL_STATUS ( 'not_yet_approved' ) ;
#89 = ORIENTED_EDGE ( 'NONE', *, *, #30, .F. ) ;
#90 = CARTESIAN_POINT ( 'NONE',  ( 0.0000000000000000000, 0.0000000000000000000, 0.0000000000000000000 ) ) ;
#91 = CALENDAR_DATE ( 2017, 6, 3 ) ;
#92 = ORIENTED_EDGE ( 'NONE', *, *, #30, .T. ) ;
#93 = PERSON_AND_ORGANIZATION ( #84, #28 ) ;
#94 = DIRECTION ( 'NONE',  ( 0.0000000000000000000, 0.0000000000000000000, -1.000000000000000000 ) ) ;
#95 = PERSON_AND_ORGANIZATION ( #84, #28 ) ;
#96 = CC_DESIGN_PERSON_AND_ORGANIZATION_ASSIGNMENT ( #33, #151, ( #112 ) ) ;
#97 = CC_DESIGN_PERSON_AND_ORGANIZATION_ASSIGNMENT ( #144, #125, ( #122 ) ) ;
#98 = PRODUCT ( 'Web Model 68738_63214', 'Web Model 68738_63214', '', ( #56 ) ) ;
#99 = AXIS2_PLACEMENT_3D ( 'NONE', #133, #164, #145 ) ;
#100 = PERSON_AND_ORGANIZATION_ROLE ( 'creator' ) ;
#101 = LINE ( 'NONE', #106, #80 ) ;
#102 = ADVANCED_FACE ( 'NONE', ( #171 ), #173, .T. ) ;
#103 = PLANE ( 'NONE',  #108 ) ;
#104 = PERSON_AND_ORGANIZATION ( #84, #28 ) ;
#105 = CC_DESIGN_APPROVAL ( #114, ( #122 ) ) ;
#106 = CARTESIAN_POINT ( 'NONE',  ( 3.000000000000000000, 1.836970198721029600E-015, -15.00000000000000000 ) ) ;
#107 = CARTESIAN_POINT ( 'NONE',  ( 0.0000000000000000000, 1.836970198721029600E-015, -15.00000000000000000 ) ) ;
#108 = AXIS2_PLACEMENT_3D ( 'NONE', #39, #20, #64 ) ;
#109 = PERSON_AND_ORGANIZATION ( #84, #28 ) ;
#110 = APPLICATION_CONTEXT ( 'configuration controlled 3d designs of mechanical parts and assemblies' ) ;
#111 = ORIENTED_EDGE ( 'NONE', *, *, #70, .T. ) ;
#112 = SECURITY_CLASSIFICATION ( '', '', #140 ) ;
#113 = APPROVAL_STATUS ( 'not_yet_approved' ) ;
#114 = APPROVAL ( #113, 'UNSPECIFIED' ) ;
#115 = SHAPE_DEFINITION_REPRESENTATION ( #19, #48 ) ;
#116 = DIRECTION ( 'NONE',  ( 0.0000000000000000000, 0.0000000000000000000, -1.000000000000000000 ) ) ;
#117 = CC_DESIGN_APPROVAL ( #124, ( #112 ) ) ;
#118 = APPROVAL_DATE_TIME ( #69, #124 ) ;
#119 = UNCERTAINTY_MEASURE_WITH_UNIT (LENGTH_MEASURE( 1.000000000000000100E-005 ), #167, 'distance_accuracy_value', 'NONE');
#120 = LOCAL_TIME ( 14, 5, 55.00000000000000000, #75 ) ;
#121 = LOCAL_TIME ( 14, 5, 55.00000000000000000, #4 ) ;
#122 = PRODUCT_DEFINITION_FORMATION_WITH_SPECIFIED_SOURCE ( 'ANY', '', #98, .NOT_KNOWN. ) ;
#123 = EDGE_LOOP ( 'NONE', ( #68, #111, #92, #162 ) ) ;
#124 = APPROVAL ( #88, 'UNSPECIFIED' ) ;
#125 = PERSON_AND_ORGANIZATION_ROLE ( 'creator' ) ;
#126 = VERTEX_POINT ( 'NONE', #152 ) ;
#127 = CALENDAR_DATE ( 2017, 6, 3 ) ;
#128 = AXIS2_PLACEMENT_3D ( 'NONE', #135, #29, #143 ) ;
#129 = DIRECTION ( 'NONE',  ( 1.000000000000000000, 0.0000000000000000000, 0.0000000000000000000 ) ) ;
#130 = CC_DESIGN_PERSON_AND_ORGANIZATION_ASSIGNMENT ( #93, #36, ( #122 ) ) ;
#131 = CALENDAR_DATE ( 2017, 6, 3 ) ;
#132 = CC_DESIGN_DATE_AND_TIME_ASSIGNMENT ( #3, #13, ( #161 ) ) ;
#133 = CARTESIAN_POINT ( 'NONE',  ( 3.000000000000000000, 0.0000000000000000000, 0.0000000000000000000 ) ) ;
#134 = AXIS2_PLACEMENT_3D ( 'NONE', #77, #170, #7 ) ;
#135 = CARTESIAN_POINT ( 'NONE',  ( 0.0000000000000000000, 0.0000000000000000000, 0.0000000000000000000 ) ) ;
#136 = DIRECTION ( 'NONE',  ( -1.000000000000000000, -0.0000000000000000000, -0.0000000000000000000 ) ) ;
#137 = FACE_OUTER_BOUND ( 'NONE', #23, .T. ) ;
#138 = EDGE_CURVE ( 'NONE', #12, #156, #78, .T. ) ;
#139 = DIRECTION ( 'NONE',  ( 1.000000000000000000, 0.0000000000000000000, 0.0000000000000000000 ) ) ;
#140 = SECURITY_CLASSIFICATION_LEVEL ( 'unclassified' ) ;
#141 = CC_DESIGN_PERSON_AND_ORGANIZATION_ASSIGNMENT ( #81, #100, ( #161 ) ) ;
#142 = VECTOR ( 'NONE', #26, 1000.000000000000000 ) ;
#143 = DIRECTION ( 'NONE',  ( 0.0000000000000000000, 0.0000000000000000000, -1.000000000000000000 ) ) ;
#144 = PERSON_AND_ORGANIZATION ( #84, #28 ) ;
#145 = DIRECTION ( 'NONE',  ( 0.0000000000000000000, 0.0000000000000000000, 1.000000000000000000 ) ) ;
#146 = PLANE ( 'NONE',  #21 ) ;
#147 = CC_DESIGN_APPROVAL ( #154, ( #161 ) ) ;
#148 = DATE_AND_TIME ( #131, #22 ) ;
#149 = CALENDAR_DATE ( 2017, 6, 3 ) ;
#150 = PERSON_AND_ORGANIZATION_ROLE ( 'design_owner' ) ;
#151 = PERSON_AND_ORGANIZATION_ROLE ( 'classification_officer' ) ;
#152 = CARTESIAN_POINT ( 'NONE',  ( 3.000000000000000000, 1.836970198721029600E-015, -15.00000000000000000 ) ) ;
#153 = DIRECTION ( 'NONE',  ( -1.000000000000000000, -0.0000000000000000000, -0.0000000000000000000 ) ) ;
#154 = APPROVAL ( #87, 'UNSPECIFIED' ) ;
#155 = CLOSED_SHELL ( 'NONE', ( #102, #32, #60, #11 ) ) ;
#156 = VERTEX_POINT ( 'NONE', #46 ) ;
#157 = ORIENTED_EDGE ( 'NONE', *, *, #27, .T. ) ;
#158 =( NAMED_UNIT ( * ) SI_UNIT ( $, .STERADIAN. ) SOLID_ANGLE_UNIT ( ) );
#159 = PERSON_AND_ORGANIZATION ( #84, #28 ) ;
#160 = APPLICATION_PROTOCOL_DEFINITION ( 'international standard', 'config_control_design', 1994, #73 ) ;
#161 = PRODUCT_DEFINITION ( 'UNKNOWN', '', #122, #86 ) ;
#162 = ORIENTED_EDGE ( 'NONE', *, *, #138, .F. ) ;
#163 = EDGE_LOOP ( 'NONE', ( #18, #59, #50, #57 ) ) ;
#164 = DIRECTION ( 'NONE',  ( -1.000000000000000000, -0.0000000000000000000, -0.0000000000000000000 ) ) ;
#165 = DIRECTION ( 'NONE',  ( 1.000000000000000000, 0.0000000000000000000, 0.0000000000000000000 ) ) ;
#166 = EDGE_CURVE ( 'NONE', #12, #126, #31, .T. ) ;
#167 =( LENGTH_UNIT ( ) NAMED_UNIT ( * ) SI_UNIT ( .MILLI., .METRE. ) );
#168 = AXIS2_PLACEMENT_3D ( 'NONE', #47, #129, #44 ) ;
#169 = FACE_OUTER_BOUND ( 'NONE', #61, .T. ) ;
#170 = DIRECTION ( 'NONE',  ( 1.000000000000000000, 0.0000000000000000000, 0.0000000000000000000 ) ) ;
#171 = FACE_OUTER_BOUND ( 'NONE', #123, .T. ) ;
#172 = CC_DESIGN_PERSON_AND_ORGANIZATION_ASSIGNMENT ( #95, #150, ( #98 ) ) ;
#173 = CYLINDRICAL_SURFACE ( 'NONE', #37, 15.00000000000000000 ) ;
#174 = CALENDAR_DATE ( 2017, 6, 3 ) ;
#175 = VERTEX_POINT ( 'NONE', #107 ) ;
ENDSEC;
END-ISO-10303-21;
